Núcleo Base

Ira!

 Ira!
Tono: E
		
(intro)


E |---------------------------------|
B |-------------------------------- |
G |-----9--------9---9-9---8--8-8-- | (2x)
D |--/9---11~~---7---7-7---7--7-7-- |
A |--------------7---7-7---6--6-6-- |
E |------------7---7-----5--------- |



E |---------------------------------|
B |-------9~~---------------------- |
G |-----9--------9---9-9---8--8-8-- |
D |--/9-----~~---7---7-7---7--7-7-- |
A |--------------7---7-7---6--6-6-- |
E |------------7---7-----5--------- |



E |---------------------------------|
B |-------------------------------- |
G |-----9--------9---9-9---8--8-8-- |
D |--/9---9-11~--7---7-7---7--7-7-- |
A |--------------7---7-7---6--6-6-- |
E |------------7---7-----5--------- |


(base 2x) ( E A B E A B )


E |---2---4---2---4---2---2---4-5-4-2-0 |
B |-5---5---5---5---5---5---5---------- |
G |------------------------------------ |
D |------------------------------------ |
A |------------------------------------ |
E |------------------------------------ |


E A B7 E A B7
Meu amor eu sinto muito, muito, muito, mais vou indo
E A B7 E A B7
Pois é tarde, muito tarde e preciso ir embora
E A B7 E A B7
Sinto muito meu amor mas acho que já vou andando
E A B7 E A B7
Amanhã acordo cedo e preciso ir embora
E A B7 E A B7
Eu queria ter você mas acho que já vou andando
E A B7 E A B7
Outro dia pode ser mas não vai dar pra ser agora...la lala lalalala

E C#m A B A
Eu tentei fugir não queria me alistar
G#m F#m B E
Eu quero lutar mas não com essa farda
C#m A B A
Eu tentei fugir não queria me alistar
G#m F#m B7 (E A B7)
Eu quero lutar mas não com essa farda

E A B7 E A B7
E já esta ficando tarde e eu estou muito cansado
E A B7 E A B7
Minha mente está tão cheia e estou me transbordando
E A B7 E A B7
Você pensa que sou louco mas estou só delirando
E A B7 E A B7
Você pensa que sou tolo mas estou só te olhando la lala lalalala

E C#m A B A
Eu tentei fugir não queria me alistar
G#m F#m B E
Eu quero lutar mas não com essa farda
C#m A B A
Eu tentei fugir não queria me alistar
G#m F#m B7 (E A B7)
Eu quero lutar mas não com essa farda
(E G#7)
Mas não com essa farda. Mas não com essa farda
A G#m F#m E
Mas não ...

(2º violão) (solo final)

E |-7-5-4-5-7-7-5-4-5-7-7-5-4-5---7-5-4-5-7-7-5-4-5-7-----5-4-5-5-4-5-5-4-----------
B |-----------------------------5---------------------5-7-----------------5-7-5-----
Texto Columnas
Alterar tom ½ tono ½ tono
sintonización acordes esconder tabs más »

Comentarios 2

  • Maximo Maximo: Publicado en 02/05/2014 02:40

    mto boa

  • arionirjose.moreira arionirjose.moreira: Publicado en 21/03/2014 02:58

    esse foi uma da primeiras musicas que aprendi co sucesso,arrebentava tocando nas lanchonetes e pizzarias,CRAZY,

Composición: Edgard Scandurra / Roberto Frejat
Ese no és el compositor? Avisenos.
Contribución: Marcelo Correcciónes: rikka »
  1. Sweet Child O' Mine - Guns N' Roses mantiene 3.074 exhibiciones
  2. Wonderwall - Oasis mantiene 2.331 exhibiciones
  3. All Of Me - John Legend mantiene 2.052 exhibiciones
  4. Nothing Else Matters - Metallica mantiene 1.753 exhibiciones
  5. Stairway To Heaven - Led Zeppelin mantiene 1.618 exhibiciones
  6. When I Was Your Man - Bruno Mars mantiene 1.606 exhibiciones
  7. I'm Yours - Jason Mraz mantiene 1.424 exhibiciones
  8. More Than Words - Extreme mantiene 1.406 exhibiciones
  9. The Scientist - Coldplay mantiene 1.393 exhibiciones
  10. Hey Jude - The Beatles mantiene 1.303 exhibiciones
  1. The Beatles- mantiene 22.429 exhibiciones
  2. Guns N' Roses- mantiene 7.586 exhibiciones
  3. Metallica- mantiene 7.182 exhibiciones
  4. Coldplay- mantiene 5.197 exhibiciones
  5. Nirvana- mantiene 5.042 exhibiciones
  6. One Direction- mantiene 5.037 exhibiciones
  7. Red Hot Chili Peppers- mantiene 4.992 exhibiciones
  8. Oasis- mantiene 4.953 exhibiciones
  9. Bruno Mars- mantiene 4.826 exhibiciones
  10. Ed Sheeran- mantiene 4.223 exhibiciones
Exhibir acordes »

Acordes y tabs

Aprenda

Studio Sol

©1996 - 2014 Cifra Club · el primero, mayor y más accedido del Brasil · 341 mil músicas · 6.3 millones de personas registradas

publicidad
cerrar