Inspector Gadget

Inspector

Sin foto de Inspector
Tono: C
		

E|-------------------------------------------------------|
B|-------------------------------------------------------|
G|-------------------------------------------------------|
D|-------------------------------------------------------|
A|-------------5--7-----6-----5--------------------------|
E|----5--7--8--------8-----7-----8-----------------------|



E|-------------------------------------------------------|
B|-------------------------------------------------------|
G|-------------------------------------------------------|
D|------------------8--6---------------------------------|
A|-------------5--7--------------------------------------|
E|----5--7--8--------------------------------------------|



E|-------------------------------------------------------|
B|-------------------------------------------------------|
G|-------------------------------------------------------|
D|-------------------------------------------------------|
A|-------------5--7-----6-----5--------------------------|
E|----5--7--8--------8-----7-----8-----------------------|



E|-------------------------------------------------------|
B|-------------------------------------------------------|
G|-------------------------------------------------------|
D|-------------------------------------------------------|
A|------------------------5------------------------------|
E|--5--4--3--2--1~----1/5--------------------------------|
227 exhibiciónes

Comentarios 0

Consigo tocarSin embargo, para tocar esta canción. ¡Sé el primero!
    Aún no puedo reproducir
    Exhibir acordes »
    publicidad
    cerrar