Beside You

Iggy Pop

 Iggy Pop
Intro+verses
E-------------------------
A-15----15----15----15----
D----14----15----18----15-
G-------------------------


E----------------
A-8---8--3/8---8-
D---8--------8---
G----------------

Refrain

E-6-6-6-6-6-8-8-8-8-8-10-10-10-10-10--10-8-8-6-6-
A------------------------------------------------
D------------------------------------------------
G------------------------------------------------

at the end
E-6-6-6-6-6-8-8-8-8-8-10-10-10-10-10--8-8-
A-----------------------------------------
D-----------------------------------------
G-----------------------------------------

verse now goes like:

E---------------------------------
A-888888--------88888---8-8---8-8-
D--------888888-------8-----8-----
G---------------------------------

later:

E--------------------------------------------
A-8-8-8-8-8------------5-5-5-5-5-5-3-3-3-3-3-
D----------8-8-8-8-8-8-----------------------
G--------------------------------------------

E--------------------------------------------
A-8-8-8-8-8------------3-3-3-3-3-------------
D----------8-8-8-8-8-8-----------------------
G--------------------------------------------

that's all!


1
Tb By: punk77

Any questions or comments: punkrnaumann@hotmail.com       Enjoy!
367 exhibiciónes

Comentarios 1

  • leospick leospick: Publicado en 29/08/2012 23:50

    Por favor alguem poste pra violão.

Composición: Iggy Pop / M. Diamond / Munari / Stephanie Davis
Ese no és el compositor? Avisenos.
Contribución: Punk77
Consigo tocarSin embargo, para tocar esta canción. ¡Sé el primero!
    Aún no puedo reproducir
    publicidad
    cerrar