Hino do Rio Grande do Sul

Hinos

 Hinos
Tono: G
		

E |---------10~~--9-7-----------------------------------------
B |--7-8-10------------10----10-7-8----7------10~~-------------
G |-----------------------9---------9----7-9------------------
D |-----------------------------------------------------------
A |-----------------------------------------------------------
E |-----------------------------------------------------------



E |---------10-9-7-9/10-10--10-9-7-9-9---------------------------
B |--7-8-10-----------------------------10-9-7~-------------------
G |---------------------------------------------11-9-------------
D |-----------------------------------------------------------
A |-----------------------------------------------------------
E |-----------------------------------------------------------



E |-----------------------------------------------------------
B |--10-9-10-10---10-7-----10-9-10-10---10-7------------------
G |-------------9------7~-------------9------7~---------------
D |-----------------------------------------------------------
A |-----------------------------------------------------------
E |-----------------------------------------------------------



E |------------------------15-12-12----------12-14------------
B |--15-15-------13-13-12-----------15-14-15-------15-12------
G |--------13-14----------------------------------------------
D |-----------------------------------------------------------
A |-----------------------------------------------------------
E |-----------------------------------------------------------



E |-----------------12-14-14-----------------12-14-14~~~~-----
B |--12-14-15-14-15-----------12-14-15-14-15------------------
G |-----------------------------------------------------------
D |-----------------------------------------------------------
A |-----------------------------------------------------------
E |-----------------------------------------------------------


Como aurora precursora
Do farol da divindade
Foi o vinte de setembro
o precursor da liberdade

(refrão)
Mostremos valor constância
Nesta ímpia e injusta guerra
Sirvam nossas façanhas
De modelo a toda terra de modelo
A toda terra sirvam nossas façanhas de modelo a toda terra

Mas não basta para ser livre
Ser forte aguerrido e bravo
Povo que não tem virtude
Acaba por ser escravo
Texto Columnas
Alterar tom ½ tono ½ tono
sintonización acordes esconder tabs más »
24 exhibiciónes

Comentarios 9

  • Gabriel Gabriel : Publicado en 19/09/2013 17:29

    Tá errado pq a segunda tablatura é o começo da segunda parte

  • ANDERSON ANDERSON: Publicado en 31/07/2013 10:45

    O começo esta errado

  • guilherme.stivanin.9 guilherme.stivanin.9: Publicado en 27/07/2013 13:53

    A cifra está correta, mas a ultima parte está muito errada, o negócio é achar um improviso que fecha com a musica e corrigir a cifra.

  • hey_itscyz hey_itscyz: Publicado en 03/05/2013 17:06

    mt coisa errada ai u.u

  • johnnywcb johnnywcb: Publicado en 12/09/2012 01:48

    ai pessoal ela ta errada no fim e a letra dela ta toda errada pessoal do cifraclub tinha que arruma vao arruma po

  • edusteffens edusteffens: Publicado en 19/02/2012 17:35

    Parece q a cifra ta meio errada no final mas da pra improvisa

  • everaldoo everaldoo: Publicado en 10/02/2012 16:06

    videoooooooooooooo aulaaaaaaaaa pff!!

    • mario96 mario96: Publicado en 02/06/2013 19:10

      Por Favor Video Aulaaaaa

  • Jonas Pedroso Jonas Pedroso: Publicado en 29/07/2011 15:05

    rsrs

Composición: Sabe quien és el compositor? Envíenos. Contribución: bruno_maciel Correcciónes: Dodo »
  1. Sweet Child O' Mine - Guns N' Roses mantiene 3.029 exhibiciones
  2. Wonderwall - Oasis mantiene 2.238 exhibiciones
  3. All Of Me - John Legend mantiene 1.991 exhibiciones
  4. Stairway To Heaven - Led Zeppelin mantiene 1.595 exhibiciones
  5. Nothing Else Matters - Metallica mantiene 1.549 exhibiciones
  6. When I Was Your Man - Bruno Mars mantiene 1.443 exhibiciones
  7. The Scientist - Coldplay mantiene 1.376 exhibiciones
  8. More Than Words - Extreme mantiene 1.346 exhibiciones
  9. Hey Jude - The Beatles mantiene 1.321 exhibiciones
  10. Wake Me Up - Avicii mantiene 1.044 exhibiciones
  1. The Beatles- mantiene 20.034 exhibiciones
  2. Guns N' Roses- mantiene 6.801 exhibiciones
  3. Metallica- mantiene 5.373 exhibiciones
  4. Coldplay- mantiene 5.179 exhibiciones
  5. Red Hot Chili Peppers- mantiene 4.773 exhibiciones
  6. Oasis- mantiene 4.678 exhibiciones
  7. Bruno Mars- mantiene 4.503 exhibiciones
  8. One Direction- mantiene 3.947 exhibiciones
  9. Nirvana- mantiene 3.781 exhibiciones
  10. Green Day- mantiene 3.442 exhibiciones
Exhibir acordes »

Acordes y tabs

Aprenda

Studio Sol

©1996 - 2014 Cifra Club · el primero, mayor y más accedido del Brasil · 337 mil músicas · 6.2 millones de personas registradas

publicidad
cerrar