Meu Socorro

Hinos Avulsos CCB

Sin foto de Hinos Avulsos CCB Compositor: Jefferson Cano
Tono: B(acordes na forma do tom A)
Cejilla en la 2ª casa		
Intro:A E F#m Bm A E

(O Hino Avulso Fica Melhor sendo tocado Com Dois Violões Para melhor desempenho do dedilhado.)


      A
E|----------------0-0-0--------------------------------0-0-0|
B|---0h2-0-0h2--------------------0h2-0-0h2-3h2-------------|
G|-------------2--------------------------------4h2-2-------|
D|----------------------------------------------------------|
A|-0-------------------------0------------------------------|
E|-----------------------0h2--------------------------------|



       E                      Bm             E Bm A
E|---------X------------X-------1-X--------0------0--------|
B|-------0-X--3-2-3-2p0-X-------3-X-3-2-0p0-0-2-2h5-2------|
G|-------1-X------------X-------4-X------------------4h2-2-|
D|-------2-X------------X-------4-X------------------------|
A|-----2-2-X------------X-0h2-2-1-X-----------------------0|
E|-0h2-----X------------X-------1-X------------------------|



A    E     F#m
Não Sei Por Que 
A  E     F#m
Eu Sofro Assim
Bm  A    E
A  Minha Fé
Bm       A       E
Está Chegando Ao Fim

A    E   F#m
Meu Coração
A    E    F#m
Tem Muita Dor
Bm  A   E
Ó Meu Senhor
Bm   A      E
Vem Diz Pra Mim

(REFRÃO)
          A            E         F#m
Quando Eu Olho Para o Céu e De Onde Me Virá 
    Bm            A       E
O Socorro Que Eu Tanto Esperei?
       A             E
Pois o Meu Socorro Vem
     F#m             E       Bm
Do Senhor Que Fez Os Céus e a Terra 
 Bm     A       E                  A E F#m Bm ...
O Universo Enfim... O Universo Enfim...


E|------0--------|
B|0-2-2h5-2------|
G|---------4h2-2-|
D|---------------|
A|--------------0|
E|---------------|


A    E     F#m
Não Sei Por Que 
A  E     F#m
Eu Sofro Assim
Bm  A    E
A  Minha Fé
Bm       A       E
Está Chegando Ao Fim

A    E   F#m
Meu Coração
A    E    F#m
Tem Muita Dor
Bm  A   E
Ó Meu Senhor
Bm   A      E
Vem Diz Pra Mim

(REFRÃO)
          A            E         F#m
Quando Eu Olho Para o Céu e De Onde Me Virá 
    Bm            A       E
O Socorro Que Eu Tanto Esperei?
       A             E
Pois o Meu Socorro Vem
     F#m             E       Bm
Do Senhor Que Fez Os Céus e a Terra 
 Bm     A       E                  A E F#m Bm  ...
O Universo Enfim... O Universo Enfim.



E|------0--------|
B|0-2-2h5-2------|
G|---------4h2-2-|
D|---------------|
A|--------------0|
E|---------------|


              (A E F#m Bm)-Dedilhado.
O Universo Enfim...
43 exhibiciónes

Comentarios 0

Exhibir acordes »
publicidad
cerrar