I Believe In Jesus

Hillsong Kids

 Hillsong Kids
Tono: A
		
(versão acústica)

(intro/verso)


 A           E          F#m          D
-------------------------------------x--
-------------------------------------x--
-------------------------------------7--
-------------------------------------7--
---4-7-4-7-4-------------------------5--
-5-----------4-7-4-7-4-0-2-5-2-5-2-0-x--


(verso)
 F#m                      D          A                 E
Maybe it's a little bit crazy to believe in what I cannot see
 F#m                      D            A                 E
Maybe it's a little bit crazy that my best friend is my Saviour
 F#m                      D           A                   E
Maybe it's a little bit crazy that a King would give His life for me
 F#m                      D              A           E
Maybe it's a little bit crazy but I've heard much stranger

(pré-refrão)
D          E          F#m          D
'Cos some things you gotta see by faith

(refrão)

 A           E          F#m          D
-------------------------------------x--
-------------------------------------x--
-------------------------------------7--
-------------------------------------7--
---4-7-4-7-4-------------------------5--
-5-----------4-7-4-7-4-0-2-5-2-5-2-0-x--  (x2)


Jump up and down (Hey!) Jump up and down
I don't care what people say

Jump up and down
I'm gonna shout it out, I believe in Jesus

(ponte) F#m D A E F#m D A E

(solo)

-------------------------------
-------------------------------
-------------------------------
------4-------6----------------
-/5-5-5--/7-7-7----------------
----------------5-5-4-4-2-2-0--



---------------------------------
---------------------------------
---------------------------------
------4-------6------------------
-/5-5-5--/7-7-7---------4-4------
----------------5-5-7-7-----7-5--



-------------------------------
-------------------------------
-------------------------------
------4-------6----------------
-/5-5-5--/7-7-7----------------
----------------5-5-4-4-2-2-0--


--------
--------
--------
--4--6--
--5--7--
--------

( A D A D )
261 exhibiciónes

Comentarios 0

Exhibir acordes »
publicidad
cerrar