O Mundo Parou

Henrique e Juliano

 Henrique e Juliano
Tono: A#
		
Intro:


E|--------------------------------------------------|
B|--------------------------------------------------|
G|--5/7-5------5-5/7\3--3-0---5/7-5------5-5/7\3--3-|
D|--------8--5----------------------8--5------------|
A|--------------------------------------------------|
E|--------------------------------------------------|


Gm                              F
A caminho de casa em plena madrugada
        Eb    F
E eu pensando em você
Gm
Trovejando sem chuva
            F
Noite sem a lua
       Eb   F      Eb   F
Só a escuridão pra ver

Gm                                     F
De repente em minha frente surge um clarão
                          Cm               Eb
Um raio incidente tocou o meu coração, coração…
F         Bb   F
Senti sua mão

Refrão:

      Bb                          F
Eu só sei que o mundo parou outra vez,
                 Cm               Gm     F
Em sonho você me salvou, me fez entender
          Bb
Que estou cego perante o amor
       F                        Cm            Gm     F
Já não sei viver mais sem o seu calor pra me aquecer


E|-------------------------------------------------------------------|
B|-------------------------------------------------------------------|
G|--5/7-5------5-5/7\3--3-0---5/7-5------5-5/7\3--3--3-3-3-3-3/5-5/7-|
D|--------8--5----------------------8--5-----------------------------|
A|-------------------------------------------------------------------|
E|-------------------------------------------------------------------|


Gm                                     F
De repente em minha frente surge um clarão
                          Cm               Eb
Um raio incidente tocou o meu coração, coração…
F         Bb   F
Senti sua mão

Refrão:

      Bb                          F
Eu só sei que o mundo parou outra vez,
                 Cm               Gm     F
Em sonho você me salvou, me fez entender
          Bb
Que estou cego perante o amor
       F                        Cm            Gm     F
Já não sei viver mais sem o seu calor pra me aquecer


E|---------------|
B|---------------|
G|--5/7-5------5-|
D|--------8--5---|
A|---------------|
E|---------------|


Cm
A noite clarear e a lua brilhar
F
Isso somente quando a gente se acertar
Cm
Sonhos e fantasias e todos os dias
F                               Bb      F
Sem você não consigo escapar... ah, ah, ah...

Refrão:

      Bb                          F
Eu só sei que o mundo parou outra vez,
                 Cm               Gm     F
Em sonho você me salvou, me fez entender
          Bb
Que estou cego perante o amor
       F                        Cm            Gm     F
Já não sei viver mais sem o seu calor pra me aquecer

Final

E|--------------------------------|
B|--------------------------------|
G|--5/7-5------5-5/7\3--3-0---5/7-|
D|--------8--5--------------------|
A|--------------------------------|
E|--------------------------------|
86 exhibiciónes

Comentarios 1

  • oliveira09 oliveira09: Publicado en 15/09/2013 16:14

    ainda falta um estrofe da musica cifra club !!!

Composición: Sabe quien és el compositor? Envíenos. Contribución: GustavoMazettoo Correcciónes: Ivan , Ivan e mais 4 »
Exhibir acordes »
publicidad
cerrar