Conversão

Harpa Cristã

 Harpa Cristã
Tono: 
		

E|-------------------|-7---7--7--7---8--7--|-7---5-5-5---5----|
B|----------------8--|-8---8--8--8---8--8--|-8---7-7-7---7-12-|
G|-------------7--7--|-7---7--7--7---9--7--|-7---7-7-7---5-12-|
D|-------------9--9--|---------------------|-0---0-0-0---0-0--|
A|-------------10-10-|-10--10-10-10--10-10-|---------------14-|
E|-------------------|---------------------|------------------|



E|-----------10--10----|-------------------|-8---8-8-----0-5-|-7---7-5-3-------|
B|-13--13-13-0---0--13-|-12----------12-12-|-5---5-5-5---8---|-3---3-------8-8-|
G|-11--11-11-11--11-11-|-0-----------10-10-|-5-------5---0-8-|-------5-4---5-5-|
D|-0---0--0--0---0--0--|-12----------12-12-|-----5-5-5-----5-|-5---------------|
A|-12--12-12--------12-|-------------10-10-|-----------------|-----5-5-5---7-7-|
E|---------------------|-------------------|-8---8-8-8---8-8-|-3---3-3-3---8-8-|



E|-5---5-----8-7-5-|-3------------|
B|-------8-7-5-----|-0------------|
G|-5---5-5-5---7-5-|-0------------|
D|-------------0-0-|--------------|
A|-7---7-7-5---7-9-|--------------|
E|-5---5-5---------|-3------------|

Comentarios 0

Consigo tocarSin embargo, para tocar esta canción. ¡Sé el primero!
    Aún no puedo reproducir
    Exhibir acordes »
    publicidad
    cerrar