Abre Os Meus Olhos

Harpa Cristã

 Harpa Cristã
Tono: 
		

E|-4-3------------------|-6-----------1--------|-0---0-1--1--3-1-3-4--|
B|-4-4-6-4--6--6---4-4--|---8-6-4-----1---4-4--|-1-3-1-1--1--1-1-5-6--|
G|-5-5-5-5--8--6---6-6--|-6-6-6-6--12-1---5-5--|-3-5-3-1--1--3-1-3----|
D|----------6--5---5-5--|-5-8-6-5--11-----6-6--|-5-5-5-3--3--2-3---6--|
A|----------------------|-6-6-6-6--13----------|-----------------3-8--|
E|-4-4-4-4--4--6---6-6--|----------11----------|----------------------|



E|-1-3-4-6--3--3---1----|-4-3------------------|-6--------------------|
B|-3-3-3-3--3--3---3-4--|-4-4-6-4--6--6---4-4--|---8-6-4--8--6---4-4--|
G|-1-0------3--3---1-0--|-5-5-5-5--8--6---6-6--|-6-6-6-6--6--5---5-5--|
D|-----3-3--------------|----------6--5---5-5--|-5-8-6-5--8--6---6-6--|
A|-1-1-------------1-6--|----------------------|-6-6-6-6--6-----------|
E|-----6-6--6--6--------|-4-4-4-4--4--6---6-6--|----------------------|



E|-8-6-4-4--4--6---4----|------6---4--4--------|----------------------|
B|-4---4-7--7--6---6-6--|-4--------------------|----------------------|
G|---8---------------6--|-6----6---5--5--------|----------------------|
D|-6-5-6-6--6--6---6-6--|-5----5---6--6--------|----------------------|
A|-------------4---4-4--|-6----6---------------|----------------------|
E|-4-6-8-8--8-----------|----------4--4--------|----------------------|

Comentarios 0

Consigo tocarSin embargo, para tocar esta canción. ¡Sé el primero!
    Aún no puedo reproducir
    Exhibir acordes »
    publicidad
    cerrar