Jogado Na Rua

Guilherme & Santiago

 Guilherme & Santiago
Tono: D#
		
Tom: D#

Intro: Eb Bb Cm Ab Eb Bb Fm Ab Bb

(Arranjo do Acordeon)


E|-6-6-6--5-4-3-x-3---4-4-4--4-4-4--4-4-4/6---5-4-3--4-4/6---------|
B|-8-8-8--7-6-4-x-4---6-6-6--6-6-6--6-6-6/8---7-6-4--6-6/8---------|
G|-----------------------------------------------------------------|
D|-----------------------------------------------------------------|
A|-----------------------------------------------------------------|
E|-----------------------------------------------------------------|




E|-4-4-4--4-4-4--4-4-4/6---5-4-3--4-4/6----3^4^3-3-3/4--4-4/6---4--|
B|-6-6-6--6-6-6--6-6-6/8---7-6-4--6-6/8----4-----4-4/6--6-6/8---6--|
G|-----------------------------------------------------------------|
A|-----------------------------------------------------------------|
E|-----------------------------------------------------------------|




E|--8-------6------------------------------------------------------|
B|--10---8----8---6------------------------------------------------|
G|----------------------7--6---------------------------------------|
D|-----------------------------8-----------------------------------|
A|-----------------------------------------------------------------|
E|-----------------------------------------------------------------|


        Eb            Ab       Bb7
Não tá fácil ficar sem teu amor aqui
        Fm       Bb7
Que saudade que dá
             Ab      Eb
Chego a ter dó de mim

      Eb                      Bb7
Meu amor é assim bruto e sincero demais
      Fm         Bb7
Sentimento sem fim
       Ab          Eb    Eb7
Amo você ninguem mais

     Ab
Me deixou assim
                 Cm
Sombra na escuridão
    Ab             Fm                   Bb7
Arrancou de mim a paz, o sorriso e a razão
             Eb
Uoou uoou ou ai

      Bb7                          Cm
É no som da viola que o peito chora ai
        Ab                        Eb
Nessas noites de lua jogado na rua
     Bb7      Ab
Ai amor, ai amor
       Ab                      Eb    Ab A Bb
Essas noites de lua jogado na rua ai

      Bb                          Cm
É no som da viola que o peito chora ai
        Ab                       Eb
Nessas noites de lua jogado na rua
     Bb7      Ab
Ai amor, ai amor
       Ab                       Eb
Essas noites de lua jogado na rua ai

      Eb                      Bb7
Meu amor é assim bruto e sincero demais
      Fm         Bb7
Sentimento sem fim
       Ab         Eb   Eb7
Amo você ninguem mais

     Ab
Me deixou assim
                 Cm
Sombra na escuridão
    Ab            Fm                  Bb7
Arrancou de mim a paz, o sorriso e a razão
              Eb
Uoou uoou ou ai


refrão:
      Bb7                        Cm
É no som da viola que o peito chora ai
        Ab                      Eb
Nessas noites de lua jogado na rua
     Bb7      Ab
Ai amor, ai amor
       Ab                      Eb Ab A Bb
Nessas noites de lua jogado na rua ai

         Bb7                 Cm
É no som da viola que o peito chora ai
        Ab                   Eb
Nessas noites de lua jogado na rua
     Bb7      Ab
Ai amor, ai amor
       Ab                       Eb
Nessas noites de lua jogado na rua ai

     Eb                     Bb7
Meu amor é assim bruto e sincero demais
      Fm         Bb7
Sentimento sem fim
       Ab          Eb
Amo você ninguem mais

     Ab
Me deixou assim
                 Cm
Sombra na escuridão
    Ab            Fm                   Bb7
Arrancou de mim a paz, o sorriso e a razão
              Eb
Uoou uoou ou ai

(refrão)
Texto Columnas
Alterar tom ½ tono ½ tono
sintonización acordes esconder tabs más »
310 exhibiciónes

Comentarios 33

Exhibiendo 10 de 33 comentarios Mostrar más ver todo »
Composición: Samuel Deolli, Valeria Costa, Marco Aurelio
Ese no és el compositor? Avisenos.
Contribución: jotafernandes Correcciónes: ramy.v , marcio.rigo.77 e mais 11 »
  1. Sweet Child O' Mine - Guns N' Roses mantiene 2.673 exhibiciones
  2. Wonderwall - Oasis mantiene 1.980 exhibiciones
  3. All Of Me - John Legend mantiene 1.737 exhibiciones
  4. Nothing Else Matters - Metallica mantiene 1.555 exhibiciones
  5. When I Was Your Man - Bruno Mars mantiene 1.540 exhibiciones
  6. Stairway To Heaven - Led Zeppelin mantiene 1.421 exhibiciones
  7. More Than Words - Extreme mantiene 1.369 exhibiciones
  8. Hey Jude - The Beatles mantiene 1.353 exhibiciones
  9. The Scientist - Coldplay mantiene 1.291 exhibiciones
  10. Wake Me Up - Avicii mantiene 1.086 exhibiciones
  1. The Beatles- mantiene 21.459 exhibiciones
  2. Guns N' Roses- mantiene 7.149 exhibiciones
  3. Metallica- mantiene 6.753 exhibiciones
  4. Red Hot Chili Peppers- mantiene 5.343 exhibiciones
  5. Nirvana- mantiene 5.143 exhibiciones
  6. Coldplay- mantiene 5.072 exhibiciones
  7. One Direction- mantiene 4.604 exhibiciones
  8. Bruno Mars- mantiene 4.512 exhibiciones
  9. Oasis- mantiene 4.404 exhibiciones
  10. Green Day- mantiene 3.497 exhibiciones
Exhibir acordes »

Acordes y tabs

Aprenda

Studio Sol

©1996 - 2014 Cifra Club · el primero, mayor y más accedido del Brasil · 336 mil músicas · 6.2 millones de personas registradas

publicidad
cerrar