Jogado Na Rua

Guilherme & Santiago

 Guilherme & Santiago
Tono: D#
		
Intro: Eb Bb Cm Ab Eb Bb ( Fm Gm ) ( Ab  Bb7 )

(Arranjo do Acordeon)



E|-4/6-6-6---4-3-3---3-4-4-4--4-4-4---4-4-4/6---4-3-3---4-4/6-|
B|-6/8-8-8---6-4-4---4-6-6-6--6-6-6---6-6-6/8---6-4-4---6-6/8-|
G|------------------------------------------------------------|
D|------------------------------------------------------------|
A|------------------------------------------------------------|
E|------------------------------------------------------------|




E|-3-4-4-4--4-4-4--4-4-4/6---4-3-3--4-4/6---6-3-4--4-6-8-11---|
B|-4-6-6-6--6-6-6--6-6-6/8---6-4-4--6-6/8---8-4-6--6-8-9-11---|
G|------------------------------------------------------------|
D|------------------------------------------------------------|
A|------------------------------------------------------------|
E|------------------------------------------------------------|




E|------8-----------------------------------------------------|
B|-9-11---11-9-8------11--------------------------------------|
G|---------------10-8-----------------------------------------|
D|------------------------------------------------------------|
A|------------------------------------------------------------|
E|------------------------------------------------------------|


        Eb          Ab      Bb7
Não tá fácil ficar sem teu amor aqui
        Fm          Bb7
Que saudade que dá
            Ab     Eb
Chego a ter dó de mim

      Eb                     Bb7
Meu amor é assim bruto e sincero demais
      Fm                Bb7
Sentimento sem fim
      Ab          Eb    Eb7
Amo você ninguém mais

    Ab
Me deixou assim:
                 Cm
Sombra na escuridão
      Ab           Fm                   Bb7
Arrancou de mim a paz, o sorriso e a razão
                    Eb
Uoou uoou uoou uoou ai!

      Bb7                          Cm
É no som da viola que o peito chora ai!
        Ab                        Eb
Nessas noites de lua jogado na rua
     Bb      Ab
Ai amor, ai amor!
       Ab                      Eb    ( Ab Bb )
Essas noites de lua jogado na rua ai!

      Bb                          Cm
É no som da viola que o peito chora ai!
        Ab                       Eb
Nessas noites de lua jogado na rua
     Bb      Ab
Ai amor, ai amor!
       Ab                      Eb
Essas noites de lua jogado na rua ai!

           (Intro)
      Eb                    Bb7
Meu amor é assim bruto e sincero demais
      Fm             Bb7
Sentimento sem fim
      Ab          Eb    Eb7
Amo você ninguém mais

    Ab
Me deixou assim
                 Cm
Sombra na escuridão
      Ab           Fm                   Bb7
Arrancou de mim a paz, o sorriso e a razão
                    Eb
Uoou uoou uoou uoou ai!

      Bb7                          Cm
É no som da viola que o peito chora ai!
        Ab                        Eb
Nessas noites de lua jogado na rua
     Bb      Ab
Ai amor, ai amor!
       Ab                      Eb    ( Ab Bb )
Essas noites de lua jogado na rua ai!

      Bb                          Cm
É no som da viola que o peito chora ai!
        Ab                      Eb
Nessas noites de lua jogado na rua
     Bb      Ab
Ai amor, ai amor!
       Ab                      Eb
Essas noites de lua jogado na rua ai!

Comentarios 37

  • mialmeida mialmeida: Publicado en 09/12/2014 16:32

    nao acredito q ta sem video aula

  • Guilherme Guilherme: Publicado en 03/12/2014 11:52

    Vídeo aula, por favor...

  • iurymedeiroos iurymedeiroos: Publicado en 15/10/2014 20:47

    Video Aula , cuidaa

  • edgar.macedo.948 edgar.macedo.948: Publicado en 27/07/2014 18:53

    Video Aula ;D

  • fuzarogui fuzarogui: Publicado en 23/07/2014 16:43

    volta a versão com capotraste

    • Luiz Thiago Luiz Thiago: Publicado en 14/08/2014 10:30

      Olá! Versão com capotraste é só você colocar o "capo" na primeira casa e diminuir a música em meio tom, sendo assim ela vai estar em ré! Flw

  • eduardoscontatos eduardoscontatos: Publicado en 23/06/2014 00:43

    solo Jogado Na Rua watch?v=GYRTRKIEwlQ

  • andrejasper andrejasper: Publicado en 22/06/2014 14:54

    VIDEO AULAAAAAAAA

  • alef.carvalho.5 alef.carvalho.5: Publicado en 21/05/2014 21:00

    kd video aula?????

  • Demigoddemon Demigoddemon: Publicado en 21/05/2014 11:21

    bruta

Exhibiendo 10 de 37 comentarios Mostrar más ver todo »
Composición: Samuel Deolli, Valeria Costa, Marco Aurelio
Ese no és el compositor? Avisenos.
Contribución: jotafernandes Correcciónes: Ordilei , ramy.v e mais 14 »
Exhibir acordes »
publicidad
cerrar