O Carteiro

Grupo Bem

 Grupo Bem Compositor: Grupo Bem
Tono: C
		
(intro) F7+  C

F7+
Em Um mundo onde
C                F7+
Muita gente vive
                C
Longe de quem ama
F7+
Um homem humilde
C            F7+
Quis aliviar
                C
A dor da distância

Am                    G
E Escolheu ser um carteiro
F                      C
E entregar cartas de amor
Am                 G
E trazia do estrangeiro
F                 C
Mensagens do interior

     Am
Francisco,
    G
Um Cisco
    C
De Luz... (2x)
(solo 1)


E|--------5---------------------------------------
B|--4b5-----8p5-------5---------8-10-8------------
G|---------------7p5-----7p5h7--------------------
D|------------------------------------------------
A|------------------------------------------------
E|------------------------------------------------



E|---------15----------15--------------15---------
B|--15b17------15b17-------15-13-12-13------------
G|------------------------------------------------
D|------------------------------------------------
A|------------------------------------------------
E|------------------------------------------------


Am
Tinha nome de santo
                  G
E era só mais um homem
                  F
Fazendo sua parte
                            C
Entregando cartas como ninguém

Era homem honesto
Dedicado ao trabalho
Não ganhava um trocado
Por cartas escritas por outro alguém

     Am
Francisco,
    G
Um Cisco
    C
De Luz...  (2x)
(solo 2)


E|-----------------------------------------------------
B|--13---15b17r15--13--12-------12-13----13-12-13------
G|-------------------------12---------------------12---
D|-----------------------------------------------------
A|-----------------------------------------------------
E|-----------------------------------------------------



E|------15b17--15~--13-12-13---------------------------
B|--13------------------------15b17r15--15p13--15------
G|-----------------------------------------------------
D|-----------------------------------------------------
A|-----------------------------------------------------
E|-----------------------------------------------------



E|--------------------------------15b17-15~------------
B|--13-12-13-15b16-15---13-15-13-----------------------
G|-----------------------------------------------------
D|-----------------------------------------------------
A|-----------------------------------------------------
E|-----------------------------------------------------


     Am
Francisco,
    G
Um Cisco
    C
De Luz...  (3x)
32 exhibiciónes

Comentarios 0

Composición: Sabe quien és el compositor? Envíenos. Contribución: Sassa Soares Correcciónes: Pacote , Pacote e mais 3 »
Consigo tocarSin embargo, para tocar esta canción. ¡Sé el primero!
    Aún no puedo reproducir
    Exhibir acordes »
    publicidad
    cerrar