Do You Wanna Touch Me (Oh Yeah)

Glee

 Glee
Tono: F#
		
Intro:

E|-0----5/2---5/2---|-2/1/0----5/2---5/2-|
B|-0----5/2---5/2---|-2/1/0----5/2---5/2-|
G|-1----6/3---6/3---|-3/2/1----6/3---6/3-|
D|-2----7/4---7/4---|-4/3/2----7/4---7/4-|
A|-2----7/4---7/4---|-4/3/2----7/4---7/4-|
E|-0----5/2---5/2---|-2/1/0----5/2---5/2-|



E|------2-|
B|------2-|
G|------3-|
D|------4-| (2x)
A|-4h6--4-|
E|------2-|


E|-----4-|
B|-----4-|
G|-----4-|
D|-----4-|
A|-----2-|
E|-2h4-2-|


E|-9--8--7-|
B|-9--8--7-|
G|-10-9--8-|
D|-11-10-9-|
A|-11-10-9-|
E|-9--8--7-|



E|-2-2-2-2-2-/|-2-2-2-2-2-/|-2-2-2-2-2-/|-/9--/9--|
B|-2-2-2-2-2-/|-2-2-2-2-2-/|-2-2-2-2-2-/|-/9--/9--|
G|-3-3-3-3-3-/|-3-3-3-3-3-/|-3-3-3-3-3-/|-/10-/10-|
D|-4-4-4-4-4-/|-4-4-4-4-4-/|-4-4-4-4-4-/|-/11-/11-| (2x)
A|-4-4-4-4-4-/|-4-4-4-4-4-/|-4-4-4-4-4-/|-/11-/11-|
E|-2-2-2-2-2-/|-2-2-2-2-2-/|-2-2-2-2-2-/|-/9--/9--|


Intro:

E|-0----5/2---5/2---|-2/1/0----5/2---5/2-|
B|-0----5/2---5/2---|-2/1/0----5/2---5/2-|
G|-1----6/3---6/3---|-3/2/1----6/3---6/3-|
D|-2----7/4---7/4---|-4/3/2----7/4---7/4-|
A|-2----7/4---7/4---|-4/3/2----7/4---7/4-|
E|-0----5/2---5/2---|-2/1/0----5/2---5/2-|



E|------2-|
B|------2-|
G|------3-|
D|------4-| (2x)
A|-4h6--4-|
E|------2-|


E|-----4-|
B|-----4-|
G|-----4-|
D|-----4-|
A|-----2-|
E|-2h4-2-|


E|-9--8--7-|
B|-9--8--7-|
G|-10-9--8-|
D|-11-10-9-|
A|-11-10-9-|
E|-9--8--7-|



E|-2-2-2-2-2-/|-2-2-2-2-2-/|-2-2-2-2-2-/|-/9--/9--|
B|-2-2-2-2-2-/|-2-2-2-2-2-/|-2-2-2-2-2-/|-/9--/9--|
G|-3-3-3-3-3-/|-3-3-3-3-3-/|-3-3-3-3-3-/|-/10-/10-|
D|-4-4-4-4-4-/|-4-4-4-4-4-/|-4-4-4-4-4-/|-/11-/11-| (2x)
A|-4-4-4-4-4-/|-4-4-4-4-4-/|-4-4-4-4-4-/|-/11-/11-|
E|-2-2-2-2-2-/|-2-2-2-2-2-/|-2-2-2-2-2-/|-/9--/9--|



E|-0----5/2---5/2---|-2/1/0----5/2---5/2-|
B|-0----5/2---5/2---|-2/1/0----5/2---5/2-|
G|-1----6/3---6/3---|-3/2/1----6/3---6/3-|
D|-2----7/4---7/4---|-4/3/2----7/4---7/4-| (8x)
A|-2----7/4---7/4---|-4/3/2----7/4---7/4-|
E|-0----5/2---5/2---|-2/1/0----5/2---5/2-|


F#
We've been here too long, tryin to get along,

pretending that your oh so shy.

I'm a natural ma'am, doin all I can,

my temperature is runnin' high.

B
Cry at night, no one in sight.
                        C#    C
Ain't we got so much to share.
B
Talkin's fine if you got the time
                            C#
but I ain't got the time to spare, yeah.

F#
Do you wanna touch, yeah. Do you wanna touch, yeah.
                      C#
Do you wanna touch me there, where.
F#
Do you wanna touch, yeah. Do you wanna touch, yeah.
                      C#
Do you wanna touch me there, where. There, yeah.
E     A  F#    A  F#    F  E     A  F#    A  F#
Yeah, oh yeah, oh yeah.    Yeah, oh yeah, oh yeah.

F#
Every girl and boy need a little joy,

all you do is sit and stare.

Beggin' on my knees, baby won't you please

run your fingers through my hair.

B
My, my, my, Whiskey and Dry,
                          C#   C
don't it make you feel so fine.
B
Right or wrong, don't it turn you on,
                           C#
can't you see we're wastin time, yeah.

F#
Do you wanna touch, yeah. Do you wanna touch, yeah.
                      C#
Do you wanna touch me there, where.
F#
Do you wanna touch, yeah. Do you wanna touch, yeah.
                      C#
Do you wanna touch me there, where. There, yeah.
E     A  F#    A  F#    F  E     A  F#    A  F#
Yeah, oh yeah, oh yeah.    Yeah, oh yeah, oh yeah.
270 exhibiciónes

Comentarios 0

Composición: David Olney / J.Rotem / Joe Bonamassa / Paulo Roberto
Ese no és el compositor? Avisenos.
Contribución: helton.e.p.a
Consigo tocarSin embargo, para tocar esta canción. ¡Sé el primero!
    Aún no puedo reproducir
    Exhibir acordes »
    publicidad
    cerrar