Dancing With Myself

Glee

 Glee Compositor: Blink 182
Tono: C
		
(intro) C (abafado)


E|---------------------------------------------------------------|
B|---------------------------------------------------------------|
G|---------------------------------------------------------------|
D|-10--10--9--10--12--10--10-10-10-10--10--9--10--12--10---------|
A|---------------------------------------------------------------|
E|---------------------------------------------------------------|



E|---------------------------------------------------------------|
B|---------------------------------------------------------------|
G|-12-12-12-10-10-10-9-9-9-9-7-7-7-10-10-10----------------------|
D|------------------------------------------10--10--9--10--12--10|
A|---------------------------------------------------------------|
E|---------------------------------------------------------------|


C
On the floors of Tokyo
             F
A|-down in London town's a go go
       G
A|-with the record selection,
And the mirror's reflection,
      F
I'm a dancin' with myself
          C
A|-when there's no one else in sight,
        F
A|-in crowded lonely night
        G
Well, I wait so long for my love vibration
        F
And I'm dancing with myself
       C
Oh oh. Dancing with a-myself,
        F
Oh, oh, dancing with myself
              G
Well, there's nothing to lose
And there's nothing to prove, well,
F                                   C
Dancing a-with myself, oh, oh, oh, oh.

     C
If I looked all over the world
            F
And there's ev'ry type of girl
         G
But your empty eyes seem to pass me by
             F
And leave me dancin' with myself.
         C
So let's sink another drink
             F
'Cause it'll give me time to think
     G
If I had the chance I'd ask one to dance
            F
And I'll be dancin' with myself

       C
Oh oh. Dancing with a-myself,
        F
Oh, oh, dancing with myself
              G
Well, there's nothing to lose
And there's nothing to prove, well,
F
Dancing a-with myself
           C
Oh, oh, oh.
            F         G
Oh, oh oh oh, oh oh oh oh, oh oh...

(solo) C  F  G  F
       C  F  G  G


E|----------------------------------|
B|----------------------------------|
G|-------------------12-12-12-------|
D|-10-10-10-12-12-12----------------|       (6x)
A|----------------------------------|
E|----------------------------------|



E|---------------------------------------------------|
B|---------------------------------------------------|
G|-------------------12-12-12-12-12-12-12-12-12-12-12|
D|-10-10-10-12-12-12---------------------------------|
A|---------------------------------------------------|
E|---------------------------------------------------|


     C
If I looked all over the world
            F
And there's ev'ry type of girl
         G
But your empty eyes seem to pass me by
             F
And leave me dancin' with myself.
         C
So let's sink another drink
             F
'Cause it'll give me time to think
     G
If I had the chance I'd ask one to dance
            F
And I'll be dancin' with myself
       C
Oh oh. Dancing a-with myself,
        F
Oh, oh, dancing with myself
G
If I had the chance I'd ask one to dance
If I had the chance I'd ask one to dance
If I had the chance I'd ask one to dance
C  F  G  F   (2x)
Oh, oh, oh, oh oh.
Oh, oh, oh oh.
Oh, oh, oh, oh,
Oh, oh, oh, oh,
Sweat, sweat, etc.
635 exhibiciónes

Comentarios 0

Composición: Billy Idol / Emmanuelle Monet / T. James
Ese no és el compositor? Avisenos.
Contribución: ManoGui Correcciónes: SA João Pedro »
Exhibir acordes »
publicidad
cerrar