Id Have You Anytime

George Harrison

 George Harrison
Tono: G
		
Chords:
        EADGBE
Gmaj7:  xx5432
Bbmaj7: xx8765
Cm7:    x35343
G:      355433
Am:     x02210
Em:     022000
D:      xx0232
A:      x02220
E:      022100
C:      x32010
F:      133211
D/C:    x30232
D/B:    x20032
D/Bb:   x10032
Asus4:  x02230


intro
  Gmaj7         Bbmaj7

E|-------5\2-----------8\5---|
B|--7\5----------10\8--------|
G|---------------------------|
D|---------------------------|
A|---------------------------|
E|---------------------------|

    Cm7

E|------6/3-6/8--\6----------|
B|--4/8--------------8-------|
G|---------------------------|
D|---------------------------|
A|---------------------------|
E|---------------------------|

    G        Am           Em  D

E|--7\5------10/12---\10-------------|
B|--------8------------------/8------|
G|-------------------------------7---|
D|-----------------------------------|
A|-----------------------------------|
E|-----------------------------------|

Gmaj7          Bbmaj7
Let me in here, I know I've been here
 Cm7               G   Am  Em  D
Let me into your heart


E|--7\5--------------------------|
B|-------8---5\3-----------------|
G|----------------4---2p0--------|
D|-------------------------2--0--|
A|-------------------------------|
E|-------------------------------|


Gmaj7           Bmaj7
Let me know you, let me show you
 Cm7               G  Am  Em  D
Let me roll it to you

A      E        D
All I have is yours
C        G       F   A
All you see is mine
          D              D/C
And I'm glad to hold you in my arms
D/B          D/Bb  A  Asus4 A
I'd have you anytime

Let me say it, let me play it
Let me lay it on you
Let me know you, let me show you
Let me grow upon you 

All I have is yours
All you see is mine
And I'm glad to hold you in my arms
I'd have you anytime

Let me in here, I know I've been here
Let me into your heart

solo
  Gmaj7         Bbmaj7

E|-------5\2-----------8\5--|
B|--7\5----------10\8-------|
G|--------------------------|
D|--------------------------|
A|--------------------------|
E|--------------------------|


    Cm7

E|------6/3-6/8--\6-----|
B|--4/8--------------8--|
G|----------------------|
D|----------------------|
A|----------------------|
E|----------------------|


    G        Am        Em     D

E|--7\5----------------12\10---------|
B|--------8--5\3--------------12\10--|
G|----------------4------------------|
D|-----------------------------------|
A|-----------------------------------|
E|-----------------------------------|


  Gmaj7         Bbmaj7

E|-------5\2-----------8\5--|
B|--7\5----------10\8-------|
G|--------------------------|
D|--------------------------|
A|--------------------------|
E|--------------------------|


    Cm7

E|----6-6--6/8--6-----|
B|--88-8-----------8--|
G|--------------------|
D|--------------------|
A|--------------------|
E|--------------------|


    G        Am           Em       D

E|--7\5------10/12---\10---------------|
B|--------8--------------12\10--8------|
G|---------------------------------7---|
D|-------------------------------------|
A|-------------------------------------|
E|-------------------------------------|


Tabbed by Yuminov Alex
mail me at *!
356 exhibiciónes

Comentarios 0

Composición: Chantal Kreviazuk / Fred Martins / George Harrison
Ese no és el compositor? Avisenos.
Exhibir acordes »
publicidad
cerrar