Still got the Blues

Gary Moore

 Gary Moore
Tono: C
		
Intr: Dm7  F/G  C7+ F7+ Bm5-/7  E7   Am

solo inicial

E|---------------------------------------|--------------------------------|
B|-----15-17---17>(18)---17>(18)--17--15-|--13-15---15>(17)---15>(17)--13-|
G|--14-----------------------------------|--------------------------------|
D|---------------------------------------|--------------------------------|
A|---------------------------------------|--------------------------------|
E|---------------------------------------|--------------------------------|



E|----------------------------------------------------||
B|-----12-13---13>(15)--13>(15)--12---10--8-----------||
G|--14----------------------------------------12>(14)-||
D|----------------------------------------------------||
A|----------------------------------------------------||
E|----------------------------------------------------||



Dm7        F/G      C7+             F7+
Used to be so easy,     to give  my heart away
Bm5-/7               E7
But I found out the hard way
           Am
There's a price you  have to pay
Dm7              F/G
I've found that  love
C7+   F7+
Is no friend of mine
Bm5-/7          E4        E
I should known time after time
Am  Em          Am       D7/9
So long, it was so long ago
         F7/9          E7/9       Am
But I've still got the blues for you    (contra-baixo  A C E)


Dm7        F/G     C7+           F7+
Used to be so easy,   to fall in love again
Bm5-/7                E7            Am
But I found out the  hard way its a road That  leads  to pain
Dm7             F/G   C7+          F7+
I've found that love      was more than just a game
Bm5-/7                   E4            E
Playing to win, but you lose just the same
Am  Em          Am      D7/9
So long, it was so long ago
           F7/9         E7/9+     Am
But I've still got the blues for you
Bm7     E7/9             Am        Am/C
So many years since I've seen your face
Bm7             E7/9
But here  im my heart
           F7+   Em7  Dm7
There's an empty    space
                   Am7
where you used to be

Solo:  Dm7  F/G  C7+ F7+ Bm5-/7  E7   Am

 Dm7  F/G  C7+ F7+ Bm5-/7  E4   E
E|---------------------------------------------------------------------------------------------------------------------------------------
B|---------------------------------15---17--17b19----17b19---17----15~---------13---15---15b17---15b17r15---13~--------12---13---13b15---
G|-----7b8r7p5----7~-------14---------------------------------------------2-------------------------------------14-----------------------
D|---------------------------------------------------------------------------------------------------------------------------------------
A|---------------------------------------------------------------------------------------------------------------------------------------
E|---------------------------------------------------------------------------------------------------------------------------------------



E|-------------------------------------------------------------------------------------------------------------------------------13---
B|---13b15r13---12~--------12--13~---13b15----15b17----------15---17--17b19r17---15~-------13---15---15b17r15b17------15b17r15--------
G|-------------------14--------------------------------14-----------------------------12----------------------------------------------
D|------------------------------------------------------------------------------------------------------------------------------------
A|------------------------------------------------------------------------------------------------------------------------------------
E|------------------------------------------------------------------------------------------------------------------------------------



E|------------------------------------------------------------------------------------------------------------------------------------------
B|----13h15---13~------12---13--13b15---15r13---12--------------------------------------10--10------------10--10-----------10--10-----------
G|-----------------14--------------------------------------14b---12----14~-----12b14--------------12b14-------------12b14------------12b14--
D|------------------------------------------------------------------------------------------------------------------------------------------
A|------------------------------------------------------------------------------------------------------------------------------------------
E|------------------------------------------------------------------------------------------------------------------------------------------



E|------------------------------------------------------------------------------------------------------15----------------------------------
B|---------------10--10-----------10--10----------15--17------------------------------------------15b17----15b17r15----13---15---10---13b---
G|------12b14------------12b14--------------14------------17b18-------17b18----17b18--------------------------------------------------------
D|------------------------------------------------------------------------------------------------------------------------------------------
A|------------------------------------------------------------------------------------------------------------------------------------------
E|------------------------------------------------------------------------------------------------------------------------------------------



E|-----10--12---12b14r12---10---12------10-------------------------10--------------------------------------------------------------
B|-----------------------------------13------13---10b12--------10-------13b15----12p10h12p10---9---10---12r10/---------------------
G|----------------------------------------------------------12---------------------------------------------------9-----5b7-----5---
D|---------------------------------------------------------------------------------------------------------------------------------
A|---------------------------------------------------------------------------------------------------------------------------------
E|---------------------------------------------------------------------------------------------------------------------------------



E|--------------------------------------------------------------------------------------------------------------------------------------------
B|-------------------------------------------------------------------------------------10--13p10--12---10h12p10-----------------13-----15b17--
G|------------------------------------------------------------------------10-------10---------------------------------12---14-----------------
D|---------------------------------------------------------10------10h12-------12-------------------------------------------------------------
A|-----------------3----5b7---5~----8\12-----10h12------12------------------------------------------------------------------------------------
E|------3b4---5-------------------------------------------------------------------------------------------------------------------------------



E|------15--------------------------------------------------------10----10h12r10--13p10h12p10-------10--------------------------------
B|----------15b17r15p13---15b17----15/---------13b15-------13b15--------------------------------13-------13p12p10--12p10p9----10------
G|---------------------------------------------------------------------------------------------------------------------------------9--
D|------------------------------------------------------------------------------------------------------------------------------------
A|------------------------------------------------------------------------------------------------------------------------------------
E|-----------------------------------------------------------------------------------------------------------------------------------



E|----------------------------------15b17----12h15p12----------------------------------12h15p12-------20b22-----20b22-----20b22-----20b22---
B|----------------------------------------------------------12h15p12-----------12--15-------------------------------------------------------
G|-----7h9p7----5---4---2\14--------------------------------------------14------------------------------------------------------------------
D|------------------------------------------------------------------------------------------------------------------------------------------
A|------------------------------------------------------------------------------------------------------------------------------------------
E|------------------------------------------------------------------------------------------------------------------------------------------



E|----17h19--17h19p17-------------17---------------------------------------------------------17------------17----------17----------17-----------
B|-------------------------20b22------17h20p17------17-----------------------------------17--------20b22-------20b22--------20b22-------20b22---
G|--------------------------------------------------19-------19p17-------17-------19b21---------------------------------------------------------
D|--------------------------------------------------------------------19-------19---------------------------------------------------------------
A|----------------------------------------------------------------------------------------------------------------------------------------------
E|----------------------------------------------------------------------------------------------------------------------------------------------



E|-------17--20--17------------------------------------------------------------------------------------12-----------12--15p12-------------
B|---------------------20--17-------------------------------------------------------------------15b17-------15b17-----------------15b17---
G|-------------------------------19b21r19p17-------19------17--19b21r19p17---19--19--19---17/---------------------------------------------
D|----------------------------------------------19-----19---------------------------------------------------------------------------------
A|----------------------------------------------------------------------------------------------------------------------------------------
E|----------------------------------------------------------------------------------------------------------------------------------------



E|----12h15p12-------------12h15p12-------------12h15p12---------------12h15p12--------------12--12-----------12--12-----22b24-----22b24--
B|-----------------15b17----------------15b17-----------------15b17--------------------15b17----------15b17-------------------------------
G|----------------------------------------------------------------------------------------------------------------------------------------
D|----------------------------------------------------------------------------------------------------------------------------------------
A|----------------------------------------------------------------------------------------------------------------------------------------
E|----------------------------------------------------------------------------------------------------------------------------------------



E|----22b24-----22b24------22b24-----22b24----22b24------22------19b20------19--17--19-------17---------------------------------------------------
B|--------------------------------------------------------------------------------------------------20--------20p17-------17----------------------
G|--------------------------------------------------------------------------------------------------------------------19-------19p17-------19-----
D|------------------------------------------------------------------------------------------------------------------------------------19------19--
A|------------------------------------------------------------------------------------------------------------------------------------------------
E|------------------------------------------------------------------------------------------------------------------------------------------------



E|---------------------------------------------------------------20b22------20b22-----20b22------20b22-------20b22------20b22-----20b22--
B|---------------------------------------------------------------------------------------------------------------------------------------
G|----17---------------------------------------------------------------------------------------------------------------------------------
D|---------19/12p10---------12---10---12--12b14----12----10\-----------------------------------------------------------------------------
A|----------------------12---------------------------------------------------------------------------------------------------------------
E|---------------------------------------------------------------------------------------------------------------------------------------



E|----17---20--20--17----22b24------------------------------------------------------------------------------------------------------------------
B|-----------------------------------------15---17---17b19----17b19r17----17----15/--------13---15---15b17---15b17---15---13-------12--13-------
G|------------------------------------14------------------------------------------------------12-------------------------------------------14---
D|----------------------------------------------------------------------------------------------------------------------------------------------
A|----------------------------------------------------------------------------------------------------------------------------------------------
E|----------------------------------------------------------------------------------------------------------------------------------------------



E|-----------------------------------------------------------------------------------------------------------------------------------15-----
B|----13b15r13---12-------------------------------12----13b15---13--------15--17--17b19r17----15-------13--15---15b17-------15b17r15-----13-
G|----------------------14---12b14----14-----------------------------14---------------------------12----------------------------------------
D|---------------------------------------------14-------------------------------------------------------------------------------------------
A|------------------------------------------------------------------------------------------------------------------------------------------
E|-----------------------------------------------------------------------------------------------------------------------------------------



E|-------------------------------------------------------------8---5h8p5---------------------------------------------5-----------------------------
B|----------12--13---13b15r13---12----9----5----10b12-----------------------8--5h8p5------------------------------5-----8p5------------------------
G|-----14------------------------------------------------------------------------------7--5h7p5----7---5--7b9--------------8p7p5-------7-----------
D|-----------------------------------------------------------------------------------------------7---7-----------------------------7-------7-------
A|-------------------------------------------------------------------------------------------------------------------------------------------------
E|-------------------------------------------------------------------------------------------------------------------------------------------------



E|----------------------------------------------------
B|---------------------------------------------------
G|---5-----4-----------------------------------------
D|---------------7--5--------------------------------
A|------------------------7--5-----------------------
E|-------------------------------8--7---3/5~--------


Am  Em           Am       D7/9
 So long, it was so long ago
          F7/9         E7/9      Am   Em
But I've still got the blues for you
              Am            Em
Through  the  days come and go
         Am           D7/9
There is one thing I know
      F7/9         E7/9+     Dm7
I've still got the blues for you

(F/G  C7+  F7+  Bm5-/7  E7   Am)
Texto Columnas
Alterar tom ½ tono ½ tono
sintonización acordes esconder tabs más »

Comentarios (12)

  • Charles Evangelista Charles Evangelista: Publicado en 17/01/2014 15:39

    vídeo aula pra galera aee cifraclub ^^

  • isaias isaias: Publicado en 25/12/2013 21:02

    no meu canal do yutub isaias santos de carvalho tem a video aula do solo

  • isaias isaias: Publicado en 25/12/2013 21:00

    olha o video aula do solo

  • lucas.linkinpark4ever lucas.linkinpark4ever: Publicado en 18/11/2013 18:04

    VÍDEO AULAAAAAAAA!! o/ Por favor!!

    • isaias isaias: Publicado en 25/12/2013 21:07

      no meu canal do yutub isaias santos de carvalho tem a video aula do solo

  • kinhoooooo kinhoooooo: Publicado en 17/03/2013 23:48

    por favor vídeo aula esse solo é o melhor, viajo muito nessa música

  • charchar charchar: Publicado en 27/01/2013 18:58

    video ala pfv.. principalmente do solo.. esse cara era um ganio do blues ^^

  • socrates38 socrates38: Publicado en 13/10/2012 13:21

    QUEM SABE TOCAR,BOTA UM VIDEO AULA NO YOUTUBE GENTE.

  • sotrollful sotrollful: Publicado en 23/07/2012 15:24

    Cadê as video aulas do Gary Moore? Esse sim merece vídeo aulas de todas as suas músicas.
    R.I.P.

  • mat2525 mat2525: Publicado en 14/05/2012 22:01

    Gary, meu ídolo

Exhibiendo 10 de 12 comentarios Mostrar más ver todo »
Composición: G. Di Dalva / Gary Moore / Stephen Barker Liles
Ese no és el compositor? Avisenos.
Contribución: Tania Correcciónes: Charles Evangelista »
  1. Sweet Child O' Mine - Guns N' Roses mantiene 2.643 exhibiciones
  2. Wonderwall - Oasis mantiene 2.133 exhibiciones
  3. Hey Jude - The Beatles mantiene 1.914 exhibiciones
  4. Nothing Else Matters - Metallica mantiene 1.697 exhibiciones
  5. Stairway To Heaven - Led Zeppelin mantiene 1.541 exhibiciones
  6. Wake Me Up - Avicii mantiene 1.471 exhibiciones
  7. When I Was Your Man - Bruno Mars mantiene 1.452 exhibiciones
  8. More Than Words - Extreme mantiene 1.350 exhibiciones
  9. Get Lucky - Daft Punk mantiene 1.296 exhibiciones
  10. Don't Let Me Down - The Beatles mantiene 1.214 exhibiciones
  1. The Beatles- mantiene 24.030 exhibiciones
  2. Metallica- mantiene 7.653 exhibiciones
  3. Guns N' Roses- mantiene 7.123 exhibiciones
  4. Nirvana- mantiene 5.933 exhibiciones
  5. One Direction- mantiene 5.680 exhibiciones
  6. Red Hot Chili Peppers- mantiene 5.357 exhibiciones
  7. Bruno Mars- mantiene 4.655 exhibiciones
  8. Coldplay- mantiene 4.610 exhibiciones
  9. Oasis- mantiene 4.220 exhibiciones
  10. Green Day- mantiene 3.213 exhibiciones
Exhibir acordes »

Acordes y tabs

Aprenda

Studio Sol

©1996 - 2014 Cifra Club · el primero, mayor y más accedido del Brasil · 329 mil músicas · 6.0 millones de personas registradas

publicidad
cerrar