Foi Daquele Jeito

Garota Safada

 Garota Safada Compositor: CarlloszGermaano
Tono: A
		
Vish, Perfeito
  A
Foi tapa na bunda, na cara
           E
Puxão de cabelo
                         Bm
Na cama, no chão e no banheiro
 D
Foi daquele jeito

Intro 2x: A E Bm D

Solo:


E|------------------------------------------------------|-----------------------------------------------------|
B|------------------------------------------------------|-----------------------------------------------------|
G|------------------------------------------------------|----------9-6----------9-6---------9-6--6h7-6-4--6-9-|
D|------------------------------------------------------|--6h7-7-7------6h7-7-7-----6h7-7-7--------------7----|
A|-----------7-4----------7-4---------7-4---4h5-4-2-2h4-|-----------------------------------------------------|
E|---4h5-5-5------4h5-5-5-----4h5-5-5-------------------|-----------------------------------------------------|


  A                  E
Tava de blusinha amarela



E|------------------------|
B|------------------------|
G|--7/9-7-6---------------|
D|----------9-7---7/9~----|
A|--------------9---------|
E|------------------------|


 Bm                       D
Jeito de safadinha que é bem a cara dela
A                      E
Eu cheguei xavecando, papo de gavião
Bm                         D
Pedi seu telefone, mais não me deu atenção

 Bm                      D
E ainda pediu pra amiga dela me falar
     A                   E
Que tava namorando, pra não incomodar

A                            E
Mais quando eu vi a amiga dela
Bm                     D
Fiquei arrepiado, parti pra cima dela
A                          E
Eu fui me aproximando, chamando sua atenção
Bm                        D         E
Daí que a sua amiga caiu na do meninão

Refrão:
A                E
Você não quis? Vish, perfeito
Bm                 D
Sua amiga quis, e foi daquele jeito
 A
Foi tapa na bunda, na cara
           E
Puxão de cabelo
                         Bm
Na cama, no chão e no banheiro
 D
Foi daquele jeito

A                E
Você não quis? Vish, perfeito
Bm                 D
Sua amiga quis, e foi daquele jeito
 A
Foi tapa na bunda, na cara
           E
Puxão de cabelo
                         Bm
Na cama, no chão e no banheiro
 D
Foi daquele jeito

Solo:


E|------------------------------------------------------|-----------------------------------------------------|
B|------------------------------------------------------|-----------------------------------------------------|
G|------------------------------------------------------|----------9-6----------9-6---------9-6--6h7-6-4--6-9-|
D|------------------------------------------------------|--6h7-7-7------6h7-7-7-----6h7-7-7--------------7----|
A|-----------7-4----------7-4---------7-4---4h5-4-2-2h4-|-----------------------------------------------------|
E|---4h5-5-5------4h5-5-5-----4h5-5-5-------------------|-----------------------------------------------------|


  A                  E
Tava de blusinha amarela
 Bm                       D
Jeito de safadinha que é bem a cara dela
A                      E
Eu cheguei xavecando, papo de gavião
Bm                         D
Pedi seu telefone, mais não me deu atenção

 Bm                      D
E ainda pediu pra amiga dela me falar
     A                   E
Que tava namorando, pra não incomodar

A                            E
Mais quando eu vi a amiga dela
Bm                     D
Fiquei arrepiado, parti pra cima dela
A                          E
Eu fui me aproximando, chamando sua atenção
Bm                        D         E
Daí que a sua amiga caiu na do meninão

Refrão:
A                E
Você não quis? Vish, perfeito
Bm                 D
Sua amiga quis, e foi daquele jeito
 A
Foi tapa na bunda, na cara
           E
Puxão de cabelo
                         Bm
Na cama, no chão e no banheiro
 D
Foi daquele jeito

A                E
Você não quis? Vish, perfeito
Bm                 D
Sua amiga quis, e foi daquele jeito
 A
Foi tapa na bunda, na cara
           E
Puxão de cabelo
                         Bm
Na cama, no chão e no banheiro
 D
Foi daquele jeito

A                E
Você não quis? Vish, perfeito
Bm                 D
Sua amiga quis, e foi daquele jeito
 A
Foi tapa na bunda, na cara
           E
Puxão de cabelo
                         Bm
Na cama, no chão e no banheiro
 D
Foi daquele jeito
83 exhibiciónes

Comentarios 0

Exhibir acordes »
publicidad
cerrar