All My Life

Foo Fighters

 Foo Fighters
Tono: A#
		
Riff 1:

P.M.


E|---------------------|
B|---------------------|
G|---------------------|
D|--5-5-5----5-5-5-----|
A|--5-5-5----5-5-5-----|
E|--3-3-3----3-3-3-----|


Riff 2:

E|--0--||-----------------------------------------------------------------|
B|--0--||-----------------------------------------------------------------|
G|--0--||----------------------------2-2---------------------------3-3----|
D|--0--||----5---5-5----5---5-5-5-5--2-2-------5---5-5----5-5-5-5--3-3----|
A|--0--||----5---5-5----5---5-5-5-5--0-0-------5---5-5----5-5-5-5--1-1----|
E|--0--||--0-3-0-3-3--0-3-0-3-3-3-3----------0-3-0-3-3--0-3-3-3-3---------|


Riff 3:

E|--0--||----------------------------------------------------------------|
B|--0--||----------------------------------------------------------------|
G|--0--||----3---3-3----3---3-3-3-3--5-5\-----3---3-3----3-3-3-3-6-6\----|
D|--0--||--0-3-0-3-3--0-3-0-3-3-3-3--5-5\---0-3-0-3-3--0-3-3-3-3-6-6\----|
A|--0--||----------------------------------------------------------------|
E|--0--||----------------------------------------------------------------|


Riff 4


E|------------------------------------------------------------------------|
B|------------------------------------------------------------------------|
G|----3------3----3-----3---2-2-------3-------3----3------3---3-3---------|
D|--------------------------2-2-------------------------------3-3---------|
A|--------------------------0-0-------------------------------1-1---------|
E|--3---333-----3---333-------------3---333-----3---333-------------------|

P.M.--  -----   --- -----           --- -----   --- ----

Riff 5

E|------------------------------------------------------------------------|
B|------------------------------------------------------------------------|
G|----3------3----3-----3---5-5-------3-------3----3------3---6-6---------|
D|--------------------------5-5-------------------------------6-6---------|
A|------------------------------------------------------------------------|
E|--3---333-----3---333-------------3---333-----3---333-------------------|

P.M.--  -----   --- -----           --- -----   --- ----




Riff 6:

E|-----(12)------(12)-----| (Harmônico)
B|------------------------|
G|------------------------|
D|------------------------|
A|------------------------|
E|------------------------|


Riff 7:
E|-----|
B|--8--|
G|--7--| Sem Deixar a distorção soar
D|--5--|
A|-----|
E|-----|


Riff 8:

E|-8-8-8-8-8-8---8-8-8-8-8-9b10-910-8-8-8-8-8-8---8-8-8-8-8-10b11-10b11--|
B|-----------------------------------------------------------------------|
G|-----------------------------------------------------------------------|
D|-----------------------------------------------------------------------|
A|-----------------------------------------------------------------------|
E|-----------------------------------------------------------------------|


[G1] - Guitarra 1
[G2] - Guitarra 2


(Riff 1 [G1]):
All My Life I've Been Searching for something
Something never comes never leads to Nothin'
Nothin' Satisfies but I'm Getting Close
Closer to the Prize at the End of The Rope
All Night Long I Dream With the Day
When It comes around when it's taken away
Leaves with a feeling that I Feel The Most
Feel It Come Alive When I See Your Ghost



(Riff 2 [G1]) (Riff 3 [G2]) (2x)

(Riff 4 [G1]) (Riff 5 [G2]):
Come Down Don't You Resist
You have such a delicate wrist
And If I Give It a Twist
Something to hold then I lose my breath
Will I Find Something In That...
To Get Me Just What It need?
Another Reason to Bleed
One By One Hidden Up My Sleeve


(Riff 1 [G1])   (2x):
One By One Hidden Up My Sleeve


Eb5
Hey! Don't Let It Go To Waste
G5
I Love It But I Hate That Taste
E5     F5	  Bb5
Hey you Keeping Me Down  (2x)



(Riff 2 [G1]) (Riff 3 [G2])


(Riff 4 [G1]) (Riff 5 [G2]):
Will I find a believer
Another one who believes
Another one to deceive
Over and over, down on my knees
If I get any closer
And if you open up wide
And if you let me inside
On and on, I've got nothing to hide


(Riff 1 [G1])   (2x):
On and on, I've got nothing to hide



Eb5
Hey! Don't Let It Go To Waste
G5
I Love It But I Hate That Taste
E5     F5	  Bb5
Hey you Keeping Me Down  (2x)


(Riff 2 [G1]) (Riff 3 [G2]) (2x)



(Riff 1 [G1])  (4x)

(Riff 1 [G1]) (Riff 6 [G2]):
All My Life I've Been Searching for something
Something never comes never leads to Nothin'
Nothin' satisfies me But I'm Getting Close
Closer to The Prize At The End Of The Rope
(Riff 1 [G1]) (Riff 7 [G2]):
All Night Long I Dream With the Day
When It Comes around when it's taken away
Leaves with a feeling that I Feel The Most
Feel It Come To Life When I See Your Ghost


(Riff 1 [G1]) (Riff 7 [G2])  (5x)
Now Done, Done Onto The Next One Done
Done I'm Onto the Next One Done
I'm Done I'm On The Next!


(Riff 6 [G1 e G2]) (1x)

(Riff 1 {Sem P.M.} [G1 e G2]) (8x)


(Riff 1 {Sem P.M.} [G1 e 2]) (2x):
Done! Done! Onto The Next One Done!
Done! I'm Onto the Next One Done!

Eb5
Hey! Don't Let It Go To Waste

G5
I Love It But I Hate That Taste
E5     F5	  Bb5
Hey you Keeping Me Down  (2x)


(Riff 2 [G1]) (Riff 8 [G2])

(Riff 2 [G1]) (Riff 8 [G2]):
Done! Done! Onto The Next One Done!
Done! I'm Onto the Next One Done!

G5

Comentarios 14

  • Tiago Tiago: Publicado en 04/11/2014 18:24

    eh meio contra tempo da voz... como faço ?

  • Rodrigo Rodrigo: Publicado en 06/03/2014 00:12

    Hey you keeping me down começa com "C/E" e não "E". E tem outros problemas menos graves.

  • anitao.nofre anitao.nofre: Publicado en 06/02/2013 17:29

    Hey you Keeping Me Down? jQuery17208754030643031001_1360178953375??????????????????????????????????????????????????Hey you Keeping Me Down

  • anitao.nofre anitao.nofre: Publicado en 06/02/2013 17:28

    Hey you Keeping Me Down jQuery1720903765524039045_1360178669778?????????????????????????????????????????????????????????????????????????????

  • anitao.nofre anitao.nofre: Publicado en 06/02/2013 17:28

    Hey you Keeping Me Down jQuery1720903765524039045_1360178669777?????????????????????????????????????????????????????????????????????????????

  • mathmorison mathmorison: Publicado en 24/01/2013 19:02

    cifra toda errada -.-'

  • gabriel12a gabriel12a: Publicado en 04/01/2013 15:09

    Tou com um pouco de dificuldade no riff 2

  • anderson7guitar anderson7guitar: Publicado en 26/08/2012 18:25

    A vá, é msm! \/

  • marceguitarsolo marceguitarsolo: Publicado en 08/07/2012 21:19

    tem que tocar o riff 1 abafando as cordas!

    • gabriel12a gabriel12a: Publicado en 04/01/2013 15:12

      ñ tem q abafar ñ kkkkk tem q deixar as cordas suaren kkkkk claro q tem q abafar

Exhibiendo 10 de 14 comentarios Mostrar más ver todo »
Composición: Claudio Rabello / Foo Fighters / The Hitman Bang
Ese no és el compositor? Avisenos.
Contribución: Rafa Correcciónes: Miguel e mais 2 »
Exhibir acordes »
publicidad
cerrar