Fica Comigo

Fernando e Sorocaba

 Fernando e Sorocaba
Tono: B
		
Intro 2x: B  F#  E  E

B
Se pra mostrar que é mais forte
E
Você tem que brincar com os meus sentimentos
G#m              F#                          E
Só lamento por você, você tem muito que aprender
B
Um grande amor não é questão de sorte
E
E pode ser que você nunca note
G#m                    F#                    E
Que eu faço tudo por você, mesmo sem você merecer

Pré-refrão:

C#m
Sempre acha que não precisa de alguém
E
E que vivendo deste jeito está muito bem
B
Fica fazendo pouco caso
                    F#
Mais quando está sozinha aparece
E me pede

Refrão:

B       F#          E
Fica comigo esta noite
Que eu te faço feliz
B        F#         E
Finge que eu sou o amor
Que você sempre quis
G#m   F#        E
Amanhã é outro dia
E a gente ve como é que

B     F#          E
Fica comigo esta noite
                   G#m
Que eu te faço feliz

G#m F# E E (2x)

SOLO :

         (Parte 1)

E|--------------------------------------------------------|
B|-12-14b16-~~--14b16r14-14b16r14-14b16r14p12-11-12-9~~~--|
G|--------------------------------------------------------|
D|--------------------------------------------------------|
A|--------------------------------------------------------|
E|--------------------------------------------------------|



         (Parte 2)

E|----------------------------------------------------------------|
B|-9--------------------------------------------------------------|
G|--11-9-8--------------------------------------------------------|
D|---------11-9-8------11-11/13~-13p11-9-8~-----------------------|
A|---------------11-9~---9------------------11-9-7~-9/11\9~-7\6~~-|
E|----------------------------------------------------------------|



B
Se pra mostrar que é mais forte
E
Você tem que brincar com os meus sentimentos
G#m              F#                          E
Só lamento por você, você tem muito que aprender
B
E um grande amor não é questão de sorte
E
E pode ser que você nunca note
G#m                    F#                    E
Que eu faço tudo por você, mesmo sem você merecer

(pré-refrão)

C#m
Sempre acha que não precisa de alguém
E
E que vivendo deste jeito está tudo bem
B
Fica fazendo pouco caso
                    F#
Mais quando está sozinha aparece
E me pede

(refrão)

B       F#          E
Fica comigo esta noite
Que eu te faço feliz
B        F#         E
Finge que eu sou o amor
Que você sempre quis
G#m   F#        E
Amanhã é outro dia
E a gente ve como é que fica

B       F#          E
Fica comigo esta noite
Que eu te faço feliz
B        F#         E
Finge que eu sou o amor
Que você sempre quis
G#m   F#        E
Amanhã é outro dia
                          G#m
E a gente ve como é que fica

G#m     F#            E
Outra vez eu sei que você vai fugir
G#m       F#       E          F#
Mas vou esperar, você ligar e me pedir

B       F#          E
Fica comigo esta noite
Que eu te faço feliz
B        F#         E
Finge que eu sou o amor
Que você sempre quis
G#m   F#        E
Amanhã é outro dia
                           G#m   F#   E   E
E a gente ve como é que fica
                           B
E a gente ve como é que fica
45 exhibiciónes

Comentarios 1

  • gugu03 gugu03: Publicado en 17/03/2014 18:44

    muito boa. so falta o solinho da guitarra no meio da musica

Composición: Sorocaba e Caco Nogueira
Ese no és el compositor? Avisenos.
Contribución: EdinanDiSouza Correcciónes: Igor »
Exhibir acordes »
publicidad
cerrar