Fernando e Sorocaba

Deixa Falar

15 reproducciones
Tono: A
Intro:


D|----------------|
A|--5-5-5-4--2-|
E|-------------5---|


( A ) (2x)

 A              E
Todo dia lá em casa rola uma festinha
F#m               D
e a mulherada pira e o povo se indigna
  A                    E
que, em plena segunda feira eu to na piscina
F#m                   D
junto com as topzinhas junto com as topzinhas
F#m                            E
Eu não me importo com o que o povo fala…
D
não economiza toma birita
  E
até não sobrar nada…
F#m                        E
Só sei que Deus deu uma vida pra cada
D
cuida da sua, que eu cuido da minha…
   E
e desse uma gelada…

Refrão:

(Riff):

               E
E|-----------0--|
B|-----------0--|
G|-----------1--|
D|-----3-----2--|
A|-0-4---4-0-2--|
E|-----------0--|


(Riff)
Deixa falar…
                      Bm
quanto mais o povo comenta
                       D
mais aumenta minha audiência mais eu fico pop
A                      E
quanto mais sobe meu ibope
                    Bm
mais aumenta minha sorte
                D
To solteiro, ligeiro pegando as top (2x)

(Base do solo 2X:  ( A  D  A  D )


E|-------------------------------------------------------|
B|-5-5-5-5-5-5-3-3-3-3-------5-5-5-5-5-5-3-3-5/7-5/------|
G|----------------------7~-3-----------------------------|
D|-------------------------------------------------------|
A|-------------------------------------------------------|
E|-------------------------------------------------------|



E|-------------------------------------------------------------------------|
B|-5-5-5-5-5-5-3-3-3-3-------5-5-5-5-5-5-3-3-3-3-2h3p2---------------------|
G|----------------------7~-3---------------------------2h3p2---------------|
D|-----------------------------------------------------------2h3p2---------|
A|-----------------------------------------------------------------2h3p2---|
E|-----------------------------------------------------------------------3-|


(Repete)
(Refrão 4x)
    Composición: Caco NogueiraColaboración y revision:
    • arthur henrique
    • felipeaugusto_c

    Comentarios 0

    0:00 / 0:00

    Capitulos

      play/pausefechar subir/bajar velocidad
      6ª cuerda E5ª cuerda A4ª cuerda D3ª cuerda G2ª cuerda B1ª cuerda E
        acordes
        publicidad
        cerrar
        ok