Fernando e Sorocaba

Da Cor do Pecado

492 reproducciones
Tono: A
(refrão 2x)
         A
Corpo moreno, sarado, gostoso,
             E
Da cor do pecado
                             F#m
Me deixa maluco, me deixa pirado,
         D
Ela é demais, demais

(base solo 2x) A   E   F#m  D

(solo)

(1ª parte)

E|--7/9-7-5-5-7/9-5---7/9-7-5--5/7-------------------|
B|-----------------------------7/9-------------------|
G|--7/9-7-6-6-7/9-6---7/9-7-6------------------------|
D|---------------------------------------------------|
A|---------------------------------------------------|
E|---------------------------------------------------|


(2ª parte)

E|--7/9--7-5-5h7p5--4/5--4h5p4--2h4p2----------------|
B|--9/10-9-7-7------6/7--5------3--------------------|
G|---------------------------------------------------|
D|---------------------------------------------------|
A|---------------------------------------------------|
E|---------------------------------------------------|


(primeira parte)
          A                 E
Falei pra ela, que o lugar dela é do meu lado
            F#m              D
Mostrei pra ela, que sou um homem apaixonado
            A             E
Vem ser só minha, beleza sobrenatural
        F#m           D
Você é linda, rainha do meu carnaval

(pré-refrão)
   A              E
Ai Ai, joga seu charme e vai embora
   F#m        D
Ai Ai, ela me usa e me ignora
   A              E
Ai Ai, vivo implorando seu amor
   F#m            D                      A
Ai Ai, eu sou só teu, vou contigo aonde for

(refrão 2x)

(repete solo)

          A                  E
Falei pra ela, que o que eu sinto é infinito
            F#m              D
Mostrei pra ela, que do meu lado é o paraíso
            A             E
Vem e incendeia esse meu peito com paixão
          F#m             D
Me deixa louco vai requebrando até o chão

(repete pré-refrão)

(refrão 2x)

¿conseguiste tocar?

  • Anna
  • rafaelbtos
  • Larissa
  • Paulinho
  • diegostronda
  • toraum
  • Matheus
  • •••
0:00 / 0:00

Capitulos

    2 versões de guitarradificuldadreproduccionescontribuición y correción
    2 versões de guitarra eléctricadificuldadreproduccionescontribuición y correción
    2 versões de cavacodificuldadreproduccionescontribuición y correción
    2 versões de tecladodificuldadreproduccionescontribuición y correción
    1 versão de bateríareproduccionescontribuición y correción
    play/pausefechar subir/bajar velocidad
    6ª cuerda E5ª cuerda A4ª cuerda D3ª cuerda G2ª cuerda B1ª cuerda E
      acordes
      publicidad
      cerrar
      ok