Teus Sonhos

Fernandinho

 Fernandinho
Tono: C
		
Intro: G  D  G  D


E|--3--3--5--3----8--7---3-3---------------------||      OBS: essa e a parte
B|--3--3--3--3----8--8---3-3--3-----3---3--------||      do violão na
G|-----------------------0-0--2-----2---2---2----||      introdução!
D|----------------------------0-----0---0---0----||
A|-----------------------------------------------||
E|-----------------------------------------------||



E|------------------------------------------------------------||
B|------------------------------------------------------------||     Riff da guitarra logo
G|-------7-------7----------4h5p4---------------7------7------||     após a intro do violão
D|-4/5-5---5---5---5/7--7~--------7-5-4---4/5-5---5--5---5/7~-||
A|------------------------------------------------------------||
E|------------------------------------------------------------||


Em                  G    D
Guarda o meu coração oh Deus
Em                  G
Guarda o meu coração
                  Am
de fazer minha vontade
                Em    D
De viver pra mim mesmo

C9                    G          D
Quão insondáveis são os teus caminhos
C9                G          D
Inescrutáveis são os teus juízos

         Em         G
Minha vontade já deixei
       C           D
O teu Reino já ganhei
          Em        G
Minha vontade já deixei
       C           D
O teu Reino já ganhei

         G            C9               D
Os teus sonhos são maiores do que os meus
          G                C               D
Os teus caminhos bem mais altos do que os meus
             Em
Toma minha vida
C       D
Tudo é teu
            Em
Toma minha vida
C      D
Tudo é teu


     Solo: C  Gm7  Dm  C
E|--------------------------------------------------------------------------||
B|--------------------------------------------------------------------------||
G|--------------------------------------------------------------------------||
D|-----14-14-14---5~----15-15-15---8~-----/7-7-7---15~----5-5-5---14-14~----||
A|--------------------------------------------------------------------------||
E|--------------------------------------------------------------------------||


C            Gm7
Venha o teu reino
      Dm             C
Seja feita a tua vontade

OBS: a parte a seguir toca enquanto o Fernandinho fala VENHA O TEU REINO SEJA FEITA A TUA VONTADE!

E|--------------------------------------------------------------------------||
B|--------------------------------------------------------------------------||
G|--------------------------------------------------------------------------||
D|-----14-14-14---5~----15-15-15---8~-----7-7-7---15~----5-5-5----14~-------||
A|--------------------------------------------------------------------------||
E|--------------------------------------------------------------------------||



E|--------------------------------------------------------------------------||
B|--------------------------------------------------------------------------||
G|--------------------------------------------------------------------------||
D|-----14-14-14---5~----15-15-15---8~-----7-7-7---15~----5~-----------------||
A|--------------------------------------------------------------------------||
E|--------------------------------------------------------------------------||


C            Gm7
Venha o teu reino
      Dm             C
Seja feita a tua vontade

Comentarios 2

  • Anderson Anderson: Publicado en 12/12/2014 13:36

    top msm!! precisei tocar uma vez! ;)

  • robson.anveres robson.anveres: Publicado en 24/08/2014 06:04

    muito top esse louvor ,peguei em 15 minutos

Exhibir acordes »
publicidad
cerrar