O Hino

Fernandinho

 Fernandinho
Tono: F
		
Intro: Dm  Bb  F  C

Dm                            Bb
Posso ouvir os passos do meu Rei
F                      C
Posso escutar Seu coração
Dm                           Bb
Da minha escuridão me libertou
F                            C
Posso ouvir seu Espírito clamar

           Dm            Bb                  F
Eu ouço:  filho Meu, chegou tua hora de brilhar
                 C
Você nasceu pra Mim
           Dm            Bb                  F
Eu ouço:  filho Meu, chegou tua hora de brilhar
                 C
Você nasceu pra Mim
            Dm  Bb  F  C
Pra esse tempo

Intro: Dm  Bb  F  C  Dm  Bb  F  C


E|------------------------------------|
B|----------5b6-6r5~~-----------------|
G|-5/7~~----------------5-------------|
D|--------------------------7~~-----5-|
A|------------------------------------|
E|------------------------------------|



E|----------------------------------|
B|-5b6-6r5~~--------5b6-6r5~~-------|
G|------------7~~--------------5----|
D|----------------------------------|
A|----------------------------------|
E|----------------------------------|



E|---------------------------------|
B|----------------5b6-6r5~~--------|
G|--------10/5~~----------------7~~|
D|-7~~/10--------------------------|
A|---------------------------------|
E|---------------------------------|


Dm                         Bb
Posso ouvir o santo som aqui
 F			    C
Anunciando sobre um Grande Rei
Dm                       Bb
Rompendo as barreiras e grilhões
   F               C
Eu quero ouvir o Pai a me chamar

           Dm            Bb                  F
Eu ouço:  filho Meu, chegou tua hora de brilhar
                 C
Você nasceu pra Mim
           Dm            Bb                  F
Eu ouço:  filho Meu, chegou tua hora de brilhar
                 C
Você nasceu pra Mim
           Dm            Bb                  F
Eu ouço:  filho Meu, chegou tua hora de brilhar
                 C
Você nasceu pra Mim
           Dm            Bb                  F
Eu ouço:  filho Meu, chegou tua hora de brilhar
                 C
Você nasceu pra Mim
            Dm
Pra esse tempo

Solo: Bb F  C  Dm  Bb F  C

(02:10)

   {   3X         }     { 5X }

E|----8h10---------------10--------|
B|-10--------------------13b15-----|
G|------------7~~------------------|
D|---------------------------------|
A|---------------------------------|
E|---------------------------------|


Dm
Esse o hino dessa geração
Bb
Usa-nos Deus, aqui estamos
F
Queremos mais de Ti, Senhor
C
O Teu amor nos alcançou
Dm
Esse o hino dessa geração
Bb
Usa-nos Deus, aqui estamos
F
Queremos mais de Ti, Senhor
C
O Teu amor nos alcançou
Dm
Esse o hino dessa geração
Bb
Usa-nos Deus, aqui estamos
F
Queremos mais de Ti, Senhor
C
O Teu amor nos alcançou
Dm
Esse o hino dessa geração
Bb
Usa-nos Deus, aqui estamos
F
Queremos mais de Ti, Senhor
C
O Teu amor nos alcançou

(03:10)

E|----10----10----10----10---12b13-13r12-----------------------|
B|-10----10----10----11------------------13--10----------------|
G|-----------------------------------------------12b14-14r12~~-|
D|-------------------------------------------------------------|
A|-------------------------------------------------------------|
E|-------------------------------------------------------------|



E|----10----10----10----10---12b13-13r12-----------------------|
B|-10----10----10----11------------------13--15--17------------|
G|-------------------------------------------------------------|
D|-------------------------------------------------------------|
A|-------------------------------------------------------------|
E|-------------------------------------------------------------|


Solo: Dm Bb F C Dm Bb F C Dm
Solo Teclado: Dm  Dm5+ Dm  Dm5+ (2x)

Ou o solo do teclado voçê pode fazer na guitarra:

E|-5-5-5-5-5-5-5-5-5---6-6-6-6-6-6-6-6-6-------|
B|-6-6-6-6-6-6-6-6-6---6-6-6-6-6-6-6-6-6-------|
G|-7-7-7-7-7-7-7-7-7---7-7-7-7-7-7-7-7-7-------|
D|---------------------------------------------|
A|---------------------------------------------|
E|---------------------------------------------|

 Dm
Ah! Jesus é Rei
 Dm5+
Ah! me conquistou
 Dm
Ah! me libertou
 Dm5+
Pra viver uma nova história               (2x)

 Dm
Ah! Jesus é Rei
 Dm5+
Ah! me conquistou
 Dm
Ah! me libertou
 Dm5+
Pra viver uma nova história               (2x)

Ah! Jesus é Rei
Ah! me conquistou
Ah! me libertou
Pra viver uma nova história   (bateria)   (2x)

(04:55)

A Base desse Riff é no mesmo tempo da estrofe anterior

(Dm Bb F C)

   {              2X       }

E|-10-----12----13----15------|
B|-13b15--15b17-16b18-18b20---|
G|----------------------------|
D|----------------------------|
A|----------------------------|
E|----------------------------|


                Dm
Vamos mudar o mundo!
	           Bb
Vamos mudar o mundo!
               F
Vamos mudar o mundo!
	           C
Vamos mudar o mundo!
                Dm
Vamos mudar o mundo!   (Dm Bb F C)
Texto Columnas
Alterar tom ½ tono ½ tono
sintonización acordes esconder tabs más »
500 Internal Server Error

500 Internal Server Error


nginx

Comentarios (25)

  • thiago thiago: Publicado en 08/03/2014 14:38

    vídeo aulaaaaa!!!!

  • guido guido: Publicado en 14/02/2014 10:04

    essa musica e muito Fodah vei !!

  • marcos marcos: Publicado en 13/02/2014 17:52

    tava tocando a musica quando minha palheta caiu detro do violão e agora?

  • danny_silvia danny_silvia: Publicado en 10/12/2013 12:30

    a musica é mesmo linda mas eu ainda prefiro a musica original! the anthem de Jesus culture!

  • Leandro Leandro: Publicado en 19/11/2013 19:20

    Muito Boa!!!!

  • mandaseupaitomarnocu mandaseupaitomarnocu: Publicado en 22/09/2013 12:52

    eu tenho a cifra completa solo e tudo a verçao q ele usa no festival promessas!

    • Leandro Leandro: Publicado en 19/11/2013 19:20

      QUE NOME EM IRMAO

  • poneis poneis: Publicado en 03/09/2013 14:54

    Alguém sabe como monta o acorde que ele usa no Festival de Promessas?

  • Gustavo Gustavo: Publicado en 20/07/2013 02:32

    video aula

Exhibiendo 10 de 25 comentarios Mostrar más ver todo »
Composición: Pr.José Roberto / Fernandinho
Ese no és el compositor? Avisenos.
Contribución: ruan_venetillo Correcciónes: Paulo , Natan e mais 12 »
  1. Sweet Child O' Mine - Guns N' Roses mantiene 2.605 exhibiciones
  2. Wonderwall - Oasis mantiene 1.800 exhibiciones
  3. Hey Jude - The Beatles mantiene 1.777 exhibiciones
  4. Nothing Else Matters - Metallica mantiene 1.611 exhibiciones
  5. Wake Me Up - Avicii mantiene 1.551 exhibiciones
  6. Stairway To Heaven - Led Zeppelin mantiene 1.463 exhibiciones
  7. When I Was Your Man - Bruno Mars mantiene 1.410 exhibiciones
  8. More Than Words - Extreme mantiene 1.284 exhibiciones
  9. Don't Let Me Down - The Beatles mantiene 1.241 exhibiciones
  10. Get Lucky - Daft Punk mantiene 1.203 exhibiciones
  1. The Beatles- mantiene 22.218 exhibiciones
  2. Metallica- mantiene 7.621 exhibiciones
  3. Guns N' Roses- mantiene 6.995 exhibiciones
  4. Nirvana- mantiene 6.064 exhibiciones
  5. Red Hot Chili Peppers- mantiene 5.100 exhibiciones
  6. One Direction- mantiene 4.547 exhibiciones
  7. Bruno Mars- mantiene 4.358 exhibiciones
  8. Coldplay- mantiene 4.096 exhibiciones
  9. Oasis- mantiene 3.918 exhibiciones
  10. Green Day- mantiene 3.026 exhibiciones
Exhibir acordes »

Acordes y tabs

Aprenda

Studio Sol

©1996 - 2014 Cifra Club · el primero, mayor y más accedido del Brasil · 329 mil músicas · 5.9 millones de personas registradas

publicidad
cerrar