20 Dollar Nose Bleed

Fall Out Boy

 Fall Out Boy
Tono: F
		
Intro / Verse (0:02)

e|-----------------------------------------|
B|-----------------------------------------|
G|-----------------------------------------|
D|-----5555------6666-----------88888888---| 
A|6666-3333-3333-4444-666666666-66666666---|
E|4444------1111------444444444------------|


Chorus (0:41)

e|-----------------------------------------|
B|-----------------------------------------|
G|-----------------------------------------|
D|-----5555------6666-----------88888888---| 
A|6666-3333-3333-4444-666666666-66666666---|
E|4444------1111------444444444------------|


Chorus (0:55)
e|-----|
B|-----|
G|5-5--| 
D|-6-6-|
A|-----|
E|-----|

Chorus (0:55)

e|----------------------------|
B|----------------------------|
G|----------------------------|
D|-5-5-6-5--5-----5-6---8-8-6-|
A|-3-3-4-3--3-8-6-3-4-6-6-6-4-|
E|------------6-4-----4-------|


Verse 2 (1:20)

e|-----------------------------------------|
B|-----------------------------------------|
G|-----------------------------------------|
D|-----5555------6666-----------88888888---|
A|6666-3333-3333-4444-666666666-66666666---|
E|4444------1111------444444444------------|


Chorus 2 (1:58)

e|-----------------------------------------|
B|-----------------------------------------|
G|-----------------------------------------|
D|-----5555------6666-----------88888888---| 
A|6666-3333-3333-4444-666666666-66666666---|
E|4444------1111------444444444------------|


Chorus 2 (2:13)
e|-----|
B|-----|
G|5-5--| 
D|-6-6-|
A|-----|
E|-----|

Chorus 2 (2:13)

e|----------------------------|
B|----------------------------|
G|----------------------------|
D|-5-5-6-5--5-----5-6---8-8-6-|
A|-3-3-4-3--3-8-6-3-4-6-6-6-4-|
E|------------6-4-----4-------|


Bridge (2:41)

e|-----------------------|
B|-----------------------|
G|-----------------------|
D|-8--9-10------6--6--6--|
A|-6--7--8------4--4--4--|
E|-----------------------|


Verse 3 (2:52)

e|-----------------------------------------|
B|-----------------------------------------|
G|-----------------------------------------|
D|-----5555------6666-----------88888888---| 
A|6666-3333-3333-4444-666666666-66666666---|
E|4444------1111------444444444------------|


Chorus 3 (3:01)

e|-----------------------------------------|
B|-----------------------------------------|
G|-----------------------------------------|
D|-----5555------6666-----------88888888---| 
A|6666-3333-3333-4444-666666666-66666666---|
E|4444------1111------444444444------------|


Chorus 3 (3:16)
e|-----|
B|-----|
G|5-5--| 
D|-6-6-|
A|-----|
E|-----|

Chorus 3 (3:16)

e|----------------------------|
B|----------------------------|
G|----------------------------|
D|-5-5-6-5--5-----5-6---8-8-6-|
A|-3-3-4-3--3-8-6-3-4-6-6-6-4-|
E|------------6-4-----4-------|


Outro (3:35)

e|-------------|
B|-------------|
G|-------------|
D|------555----|
A|-6666-333-3--|
E|-4444-----1--|


| /  slide up
| \  slide down
| h  hammer-on
| p  pull-off
| ~  vibrato
| +  harmonic
| x  Mute note

Comentarios 0

Composición: Fall Out Boy / Jair Rocha
Ese no és el compositor? Avisenos.
Contribución: FOB****
Consigo tocarSin embargo, para tocar esta canción. ¡Sé el primero!
    Aún no puedo reproducir
    Exhibir acordes »
    publicidad
    cerrar