Cose Della Vita

Eros Ramazzotti

 Eros Ramazzotti
Tono: G
		
Dist.

-------------------------------------------------------------0-------|
-------------------------------------------------------------0-------|
---------------------------------------------------------------------|
--2---2---2--------2---2---2-------2---2---2-----2--2----------------|
--2---2---2--------2---2---2-------2---2---2-------------------------|
--0---0---0--------0---0---0-------0---0---0-------------------------|



------------------------0--------------------------------------------|
------------------------0--------------------------------------------|
------------------------------4--------------------------------------|
--2---2---2------2------------2--------------------------------------|
--2---2---2----------------------------------------------------------|
--0---0---0----------------------------------------------------------|


S.L.

---------------------------------------------------------------------|
---------------------------------------------------------------------|
---------------------------------------------------------------------|
---------------------------------------------------------------------|
-------------------------------------------------0-------------------|
--0---1---2-----------0---1----2-----------0-----------2-------------|



F#m     D              A     E     F#m   D                     A    E
    Sono   umane   situazioni  !      Quei    momenti  fra  di  noi  !

S.L.

---------------------------------------------------------------------|
---------------------------------------------------------------------|
---------------------------------------------------------------------|
---------------------------------------------------------------------|
-------0-------------------------------------------------------------|
--0---------2--------------------------------------------------------|




F#m      D                A      E   F#m     D                 A     E
     I    distacchi  e  i  ritorni      !  Da  capirci  niente  poi !

Bm     A          E
Gia ... come  vedi

Bm       A         E    F#m   D    A    E
Sto  pensando  a  te      ... si    ...  da  un  po !

SOLO 1 : 
Dist.

---------------------------------------------------------------------|
---------10----12b-r-(13)--12---10---12--12---10-------10------------|
--/-11---------------------------------------------11----------------|
---------------------------------------------------------------------|
---------------------------------------------------------------------|
---------------------------------------------------------------------|



---------------------------------------------------------------------|
------------------------10----------------------10---12b-r-(13)------|
--9----------9-h-11----------11--------/-11--------------------------|
-------11------------------------------------------------------------|
---------------------------------------------------------------------|
---------------------------------------------------------------------|



--------------------------------------------12--12-h-14--------------|
--12---10---12---12---10---------12-/-14-----------------------------|
----------------------------11---------------------------------------|
---------------------------------------------------------------------|
---------------------------------------------------------------------|
---------------------------------------------------------------------|




---12-----------------------------17---------------------------------|
----------------------------19---------------------------------------|
--------------16-/-18------------------------------------------------|
---------------------------------------------------------------------|
---------------------------------------------------------------------|
---------------------------------------------------------------------|



     F#m    D               A    E
          Sono  umane  condizioni !
S.L.

---------------------------------------------------------------------|
---------------------------------------------------------------------|
---------------------------------------------------------------------|
---------------------------------------------------------------------|
---------------------------------------------------------------------|
---0----1----2-------------------------------------------------------|


     F#m    D                 A    E
         Stare  bene  oppure  no !

---------------------------------------------------------------------|
---------------------------------------------------------------------|
---------------------------------------------------------------------|
---------------------------------------------------------------------|
----------0----------------------------------------------------------|
----0-----------2----------------------------------------------------|



     F#m   D                 A     E
         Puo  dipendere  daí  giorni !

---------------------------------------------------------------------|
---------------------------------------------------------------------|
---------------------------------------------------------------------|
---------------------------------------------------------------------|
---------------------------------------------------------------------|
----0-----1-----2----------------------------------------------------|



     F#m    D                A   E
        Dale  nostalgie  che  ho !

Bm      A           E
Gia ... come  vedi

Bm       A            E
Sto  pensando  a  te

       A                 C#m                    Bm
Come  se  queste  tempo  non  fosse  passato  mai

--------------------------5-----------------------------------------|
---------------------3----------------------------------------------|
---------------4----------------------------------------------------|
--------------------------------------------------------------------|
--------------------------------------------------------------------|
--------------------------------------------------------------------|



           F#m
     Dove  siamo  stati , cosa  siamo  poi

------------------4-------------------------------------------------|
------------------------7-------------------------------------------|
-----------------------------6--------------------------------------|
--------------------------------------------------------------------|
--------------------------------------------------------------------|
--------------------------------------------------------------------|


           A                C#m                  Bm
     Confinanti  di  cuore  solo  che  ognuno  sta

----------------------------5---------------------------------------|
-----------------------3--------------------------------------------|
------------------4-------------------------------------------------|
--------------------------------------------------------------------|
--------------------------------------------------------------------|
--------------------------------------------------------------------|


        F#m           C#m                Bm
Dietro  gli  steccati  degli  orgogli  suoi

                     F#m         D       A      E
Sto  pensando  a  te

                     F#m         D       A      E
Sto  pensando  a  noi ...


SOLO  2 :               h.a.
Dist.                   

------------------------16------------------------------------------|
----------14-/-16-----------------------12---14---------------------|
---------------------------------16-------------------13-/-15-------|
----13--------------------------------------------------------------|
--------------------------------------------------------------------|
--------------------------------------------------------------------|

                                                                   
                                                h.a.

--------------------------------------------------------------------|
---12-/-14----------------------------------------------------------|
----------------11-/-13---11----------11-/-13----11-----------------|
--------------------------------13----------------------------------|
--------------------------------------------------------------------|
--------------------------------------------------------------------|




--------------------------------------------------------------------|
-----------------------------------------------------------11-h-12--|
----8-/-6---------------------------------------8---11--------------|
--------------9---8-h-9-p-8---------9-/-11--------------------------|
-------------------------------9------------------------------------|
--------------------------------------------------------------------|




--------------------------------14----16----------------------------|
---p-11----------14-/-16--------------------------------------------|
------------11------------------------------------------------------|
--------------------------------------------------------------------|
--------------------------------------------------------------------|
--------------------------------------------------------------------|



     G#m     E              B    F#    
        Sono  cose  della  vita  !                                                               
S.L.

---------------------------------------------------------------------|
---------------------------------------------------------------------|
---------------------------------------------------------------------|
---------------------------------------------------------------------|
-------------------2-------------------------------------------------|
------------2--------------4-----------------------------------------|


        G#m        E                 B  F#    
            Vanno  presse  un  po  cosi 

---------------------------------------------------------------------|
---------------------------------------------------------------------|
---------------------------------------------------------------------|
---------------------------------------------------------------------|
--------------------------2------------------------------------------|
-------------------2--------------4----------------------------------|



        G#m          E            B    F#      G#m        E               B   F#
            E  gia  stata  una  fatica !             Arrivare  fino  a  Qui

C#m    B         F#/Bb
Gia ...   come  vedi
Dist.

---------------------------------------------------------------------|
-----------------------14b----14---12---14---------------------------|
----------------13---------------------------------------------------|
---------------------------------------------------------------------|
---------------------------------------------------------------------|
---------------------------------------------------------------------|


C#m           B            F#
   Io  sto  ancora  in  piedi , perche




-------------------------------16-----19-----16----------------------|
----------14-/-16----19----------------------------------------------|
---------------------------------------------------------------------|
---------------------------------------------------------------------|
---------------------------------------------------------------------|
---------------------------------------------------------------------|


       G#m                               E
         Sono  umani  tutti  i  sogni  miei

       B                               F#
         Con  le  mani  io  li  prenderei , si  perche

--------------------19b-----19-----16--------------------------------|
-------------16------------------------------------------------------|
---------------------------------------------------------------------|
---------------------------------------------------------------------|
---------------------------------------------------------------------|
---------------------------------------------------------------------|


       G#m                               E
           Sono  umani  questi  sogni  miei

         B                              F#
           Con  le  mani  io  li  prenderei

Am        F             C    G  Am        F                C            G
    Sono  cose  della vita !      Ma  la  vita  poi  dov`e , dov`e , dov`e

Am          F               C  G   Am       F           C     
    Se  da  quando  e  partita !      Un  inseguimento  e  poi  dov`e 

   G
    Poi dov`e

Dm      C         G/B
Gia ...  come  vedi

---------------------------------------------------------------------|
------------------15b---15---13---15----13---12----------------------|
-----------12--------------------------------------------14----------|
---------------------------------------------------------------------|
---------------------------------------------------------------------|
---------------------------------------------------------------------|


Dm               C         G
Sto  pensando  ancora  a  te

---------------------------------------------------------------------|
----------------------13---12----15---13---15-/-17---15---13---------|
----12-/-14--12------------------------------------------------------|
---------------------------------------------------------------------|
---------------------------------------------------------------------|
---------------------------------------------------------------------|


        C                Em                   Dm7
Questa  notte  che  passa  piano  accanto  a  me 

---------------------------8-----------------------------------------|
-----------------------6---------------------------------------------|
------------------7--------------------------------------------------|
---------------------------------------------------------------------|
---------------------------------------------------------------------|
---------------------------------------------------------------------|



          Am7
Cerco  di  affrontarla , afferrarla

-------x--------7-/--------------------------------------------------|
-------x-------10-/--------------------------------------------------|
-------x--------9-/--------------------------------------------------|
-------x--------7-/--------------------------------------------------|
---------------------------------------------------------------------|
---------------------------------------------------------------------|

                                                                                                                                             
      C                  Em                          Dm7
E  se  prendo  le  curve  del  cuore  spandando  un  po

----------------------------------8----------------------------------|
-----------------------------6---------------------------------------|
------------------------7--------------------------------------------|
---------------------------------------------------------------------|
---------------------------------------------------------------------|
---------------------------------------------------------------------|


       Am         Em              Dm7    
Voglio  provocarla  anche  adesso  che , che

---------------------------------------------------------------------|
---------------------------------------------------------------------|
------------7----x----x------7--/------------------------------------|
------------7----x----x------7--/------------------------------------|
------------5----x----x------5--/------------------------------------|
---------------------------------------------------------------------|


                   Am          F        C        G
Sto  pensando  a  te ...

SOLO  3 :

---------------------------------------------------------------------|
------------13--15br-(17)-15--13--15--15--13-------------------------|
--12-/-14------------------------------------------------------------|
---------------------------------------------------------------------|
---------------------------------------------------------------------|
---------------------------------------------------------------------|



---------------------------------------------------------------------|
---------13------------------------------------------13---15br-------|
---12---------12----------14--------------12-/-14--------------------|
-------------------14------------------------------------------------|
----------------------------------12---------------------------------|
---------------------------------------------------------------------|



--------------------------------------------------15--17--15---------|
---(17)-15----13---15---15--13---------/-17--------------------------|
---------------------------------14----------------------------------|
---------------------------------------------------------------------|
---------------------------------------------------------------------|
---------------------------------------------------------------------|



--17b----------------------------------------------------------------|
----------------------13----15br-(17)-15--13---15--15--13------------|
-----------12-/-14---------------------------------------------------|
---------------------------------------------------------------------|
---------------------------------------------------------------------|
---------------------------------------------------------------------|



---------------------------------------------------------------------|
--------13-----------------------------------------------------------|
--12---------12---------14-------------------------------------------|
------------------14-------------------------------------------------|
--------------------------------12-----------------------------------|
---------------------------------------------------------------------|



Legend :
Dist - distorcao
S.L. - som limpo
br - bend reverse
b - bend
/ - slide
h - hammer-on
p - pull-off
x - abafar
Texto Columnas
Alterar tom ½ tono ½ tono
sintonización acordes esconder tabs más »

Comentarios (0)

Composición: Charles Chas Hodges / David Mario Reyes / Dolores Nance / E.G. White / Ian Tyson
Ese no és el compositor? Avisenos.
Contribución: Neto Chiaradia
Consigo tocarSin embargo, para tocar esta canción. ¡Sé el primero!
    Aún no puedo reproducir
    1. Sweet Child O' Mine - Guns N' Roses mantiene 2.643 exhibiciones
    2. Wonderwall - Oasis mantiene 2.133 exhibiciones
    3. Hey Jude - The Beatles mantiene 1.914 exhibiciones
    4. Nothing Else Matters - Metallica mantiene 1.697 exhibiciones
    5. Stairway To Heaven - Led Zeppelin mantiene 1.541 exhibiciones
    6. Wake Me Up - Avicii mantiene 1.471 exhibiciones
    7. When I Was Your Man - Bruno Mars mantiene 1.452 exhibiciones
    8. More Than Words - Extreme mantiene 1.350 exhibiciones
    9. Get Lucky - Daft Punk mantiene 1.296 exhibiciones
    10. Don't Let Me Down - The Beatles mantiene 1.214 exhibiciones
    1. The Beatles- mantiene 24.030 exhibiciones
    2. Metallica- mantiene 7.653 exhibiciones
    3. Guns N' Roses- mantiene 7.123 exhibiciones
    4. Nirvana- mantiene 5.933 exhibiciones
    5. One Direction- mantiene 5.680 exhibiciones
    6. Red Hot Chili Peppers- mantiene 5.357 exhibiciones
    7. Bruno Mars- mantiene 4.655 exhibiciones
    8. Coldplay- mantiene 4.610 exhibiciones
    9. Oasis- mantiene 4.220 exhibiciones
    10. Green Day- mantiene 3.213 exhibiciones
    Exhibir acordes »

    Acordes y tabs

    Aprenda

    Studio Sol

    ©1996 - 2014 Cifra Club · el primero, mayor y más accedido del Brasil · 329 mil músicas · 6.0 millones de personas registradas

    publicidad
    cerrar