Wonderful Tonight

Eric Clapton

 Eric Clapton
Tono: G
		
Introdução: G  D4/F#  C/E  D5
            G  D4/F#  C/E  D5


(Guitarra Base 1)


   G               D4/F#
E|------------------------------------------|
B|-----3-----3---------3-----3--------------|
G|---4-----4---4-----0-----0---0------------|
D|-5-----5-------5-4-----4-------4----------|
A|------------------------------------------|
E|------------------------------------------|



   C/E             D5
E|------------------------------------------|
B|-----1-----1---------3-----3--------------|
G|---0-----0---0-----2-----2---2------------|
D|-2-----2-------2-0-----0-------0----------|
A|------------------------------------------|
E|------------------------------------------|



   G               D4/F#
E|------------------------------------------|
B|-----3-----3---------3-----3--------------|
G|---4-----4---4-----0-----0---0------------|
D|-5-----5-------5-4-----4-------4----------|
A|------------------------------------------|
E|------------------------------------------|



   C/E             D5
E|------------------------------------------|
B|-----1-----1---------3-----3--------------|
G|---0-----0---0-----2-----2---2------------|
D|-2-----2-------2-0-----0-------0----------|
A|------------------------------------------|
E|------------------------------------------|



(Guitarra Base 2)


   G               D4/F#
E|------------------------------------------|
B|-----3-----3---------3-----3--------------|
G|---4-----4---4-----0-----0---0------------|
D|-5-----5-------5-4-----4-------4----------|
A|------------------------------------------|
E|------------------------------------------|



   C/E             D5
E|------------------------------------------|
B|-----1-----1--------0--1--/5--------------|
G|---0-----0---0---2--0--2--/5--------------|
D|-2-----2---------4------------------------|
A|------------------------------------------|
E|------------------------------------------|



   G               D4/F#
E|---------------------5-----5--------------|
B|-3-----------------7-----7---7------------|
G|-4---------------7-----7-------7\---------|
D|-5----------------------------------------|
A|------------------------------------------|
E|------------------------------------------|



   C/E             D5
E|-------3----------------------------------|
B|---5-------5--------0--1--/5--------------|
G|-5---5-------5\--2--0--2--/5--------------|
D|-----------------4------------------------|
A|------------------------------------------|
E|------------------------------------------|



(Guitarra Solo)


E|----------------------------------------------------|
B|-10b12r10-8-10~---10b12r10-8------10b12r10-8-10~----|
G|-----------------------------9~---------------------|
D|----------------------------------------------------|
A|----------------------------------------------------|
E|----------------------------------------------------|



E|----------------------------------------------------|
B|-10b12r10-8-10~---10b12r10-8------10b12r10-8--------|
G|-----------------------------9~---------------------|
D|----------------------------------------------------|
A|----------------------------------------------------|
E|----------------------------------------------------|



E|------------8--10h12--10~---------------------------|
B|-10--10/12------------------------------------------|
G|----------------------------------------------------|
D|----------------------------------------------------|
A|----------------------------------------------------|
E|----------------------------------------------------|



Primeira Parte:

G                  D4/F#
  It's late in the evening
C/E                        D5
    She's wondering what clothes to wear
G                    D4/F#
  She'll put on her make-up
C/E                  D5
    And brushes her long blond hair
C9                 D5
   And then she'll ask me
G        D4/F#    Em
  "Do I look all right?"
              C9
And I'll say yes
          D5          G    D4/F#  C/E  D5
You look wonderful tonight


(Guitarra Base 1)


   G               D4/F#
E|------------------------------------------|
B|-----3---------------3-----3--------------|
G|---4---------------0-----0---0------------|
D|-5---------------4-----4-------4----------|
A|------------------------------------------|
E|------------------------------------------|



   C/E             D5
E|------------------------------------------|
B|-----1---------------3---3----------------|
G|---0---------------2-------2---2----------|
D|-2-----2---------0-----0-----0------------|
A|------------------------------------------|
E|------------------------------------------|



   G               D4/F#
E|------------------------------------------|
B|-----3-----3---------3-----3--------------|
G|---4-----4---4-----0-----0---0------------|
D|-5-----5-------5-4-----4-------4----------|
A|------------------------------------------|
E|------------------------------------------|



   C/E             D5
E|------------------------------------------|
B|-----1-----1---------3---3----------------|
G|---0-----0---0-----2----------------------|
D|-2-----2-------2-0-----0---0--------------|
A|-----------------------------0-2----------|
E|------------------------------------------|



   C9             D5
E|------------------------------------------|
B|-------------------------3----------------|
G|-------0----------2---2----2--------------|
D|---2------2-----0---0--------0------------|
A|-3---3-------3----------------------------|
E|------------------------------------------|



   G       D4/F#   Em
E|------------------------------------------|
B|-----3-------3-------0--------------------|
G|---4-------0-------0---0------------------|
D|-5-----5-4-----4-2-----2------------------|
A|------------------------------------------|
E|------------------------------------------|



       C9             D5
E|------------------------------------------|
B|-----------------------------3------------|
G|-----------0----------2---2----2----------|
D|-------2------2---2-0---0--------0--------|
A|-0-2-3---3------3-------------------------|
E|------------------------------------------|



   G               D4/F#
E|------------------------------------------|
B|-----3-----3---------3-----3--------------|
G|---4-----4---4-----0-----0---0------------|
D|-5-----5-------5-4-----4-------4----------|
A|------------------------------------------|
E|------------------------------------------|



   C/E             D5
E|------------------------------------------|
B|-----1-----1---------3-----3--------------|
G|---0-----0---0-----2-----2---2------------|
D|-2-----2-------2-0-----0-------0----------|
A|------------------------------------------|
E|------------------------------------------|



(Guitarra Base 2)


   G               D4/F#
E|--------------------------5---------------|
B|-3--------------------------5-------------|
G|-4----------------------------7\----------|
D|-5----------------------------------------|
A|------------------------------------------|
E|------------------------------------------|



   C/E             D5
E|-------------------------5----------------|
B|---------------------3-------3------------|
G|-5-----------------2---2---2---2----------|
D|-----------------0------------------------|
A|------------------------------------------|
E|------------------------------------------|



   G               D4/F#
E|-7----------------------5-----------------|
B|-8------------------------7---------------|
G|-7----------------------------7\----------|
D|----------------------------7-------------|
A|------------------------------------------|
E|------------------------------------------|



   C/E             D5
E|--------------------5---2---0-------------|
B|----------------------3---3---2-----------|
G|-5----------------------------------------|
D|------------------0-----------------------|
A|------------------------------------------|
E|------------------------------------------|



   C9             D5
E|-------3----------------5-----------------|
B|---3------3---5---5---5---5---5-----------|
G|-5---5------5---7---7-------7-------------|
D|------------------------------------------|
A|------------------------------------------|
E|------------------------------------------|



   G       D4/F#   Em
E|-----7-------5-------3--------------------|
B|---8---8---7---7---5---5----5-------------|
G|-7-------7-------4--------4---4-----------|
D|------------------------------------------|
A|------------------------------------------|
E|------------------------------------------|



   C9              D5
E|-------3---------------------5------------|
B|---3-----3---3-----5---7-------5----------|
G|-5---5-----5---5-7---7-----7--------------|
D|------------------------------------------|
A|------------------------------------------|
E|------------------------------------------|



   G               D4/F#
E|------------------------------------------|
B|-----3-----3---------3-----3--------------|
G|---4-----4---4-----0-----0---0------------|
D|-5-----5-------5-4-----4-------4----------|
A|------------------------------------------|
E|------------------------------------------|



   C/E             D5
E|------------------------------------------|
B|-----1-----1--------0--1--/5--------------|
G|---0-----0---0---2--0--2--/5--------------|
D|-2-----2---------4------------------------|
A|------------------------------------------|
E|------------------------------------------|



(Guitarra Solo)


E|----------------------------------------------------|
B|-10b12r10-8-10~---10b12r10-8------10b12r10-8--------|
G|-----------------------------9~---------------------|
D|----------------------------------------------------|
A|----------------------------------------------------|
E|----------------------------------------------------|



E|------------8--10h12--10~---------------------------|
B|-10--10/12------------------------------------------|
G|----------------------------------------------------|
D|----------------------------------------------------|
A|----------------------------------------------------|
E|----------------------------------------------------|



Segunda Parte:

G                D4/F#
  We'll go to a party
C/E               D5
    And everyone turns to see
G                 D4/F#
  This beautiful lady
C/E                  D5
    That's walking around with me
C9                 D5
   And then she'll ask me
G          D4/F#    Em
  "Do you feel all right?"
              C9
And I'll say yes
        D5          G
I feel wonderful tonight


(Guitarra Base 1)


   G               D4/F#
E|------------------------------------------|
B|-----3-----3---------3-----3--------------|
G|---4-----4---4-----0-----0---0------------|
D|-5-----5-------5-4-----4-------4----------|
A|------------------------------------------|
E|------------------------------------------|



   C/E             D5
E|------------------------------------------|
B|-----1---------------3---3----------------|
G|---0---------------2-------2---2----------|
D|-2-----2---------0-----0-----0------------|
A|------------------------------------------|
E|------------------------------------------|



   G               D4/F#
E|------------------------------------------|
B|-----3-----3---------3-----3--------------|
G|---4-----4---4-----0-----0---0------------|
D|-5-----5-------5-4-----4-------4----------|
A|------------------------------------------|
E|------------------------------------------|



   C/E             D5
E|------------------------------------------|
B|-----1-----1---------3---3----------------|
G|---0-----0---0-----2----------------------|
D|-2-----2-------2-0-----0---0--------------|
A|-----------------------------0-2----------|
E|------------------------------------------|



   C9             D5
E|------------------------------------------|
B|--------------------3------3--------------|
G|-------0----------2---2------2------------|
D|---2------2-----0--------0----------------|
A|-3---3-------3----------------------------|
E|------------------------------------------|



   G       D4/F#   Em
E|------------------------------------------|
B|-----3-------3-------0--------------------|
G|---4-------0-------0---0------------------|
D|-5-----5-4-----4-2-----2------------------|
A|------------------------------------------|
E|------------------------------------------|



       C9             D5
E|------------------------------------------|
B|-----------------------------3------------|
G|-----------0----------2---2----2----------|
D|-------2------2---2-0---0--------0--------|
A|-0-2-3---3------3-------------------------|
E|------------------------------------------|



   G
E|------------------------------------------|
B|-----3-----3---------3-----3--------------|
G|---4-----4---4-----4-----4---4------------|
D|-5-----5-------5-5-----5-------5----------|
A|------------------------------------------|
E|------------------------------------------|



(Guitarra Base 2)


   G               D4/F#
E|------------------------5-----------------|
B|-3------------------------7---------------|
G|-4----------------------------7\----------|
D|-5--------------------------7-------------|
A|------------------------------------------|
E|------------------------------------------|



   C/E             D5
E|------------------------5-----------------|
B|--------------------------7---7-----------|
G|-5--------------------------7-------------|
D|----------------------0-------------------|
A|------------------------------------------|
E|------------------------------------------|



   G               D4/F#
E|-7----------------------5-----------------|
B|-8------------------------7---------------|
G|-7----------------------------7-----------|
D|----------------------------7-------------|
A|------------------------------------------|
E|------------------------------------------|



   C/E             D5
E|------------------5---------5-------------|
B|--------------------7---5-----7-----------|
G|-5--------------------7---7---------------|
D|-5----------------------------------------|
A|------------------------------------------|
E|------------------------------------------|



   C9              D5
E|-------3------------------5-5-------------|
B|---3--------3-----5---5-7-----7/----------|
G|-5---5----5---5\7---7---------------------|
D|------------------------------------------|
A|------------------------------------------|
E|------------------------------------------|



   G       D4/F#   Em
E|-----7-------5-------3------3-------------|
B|-8-----8---7---7---5---5----5-------------|
G|---7-----7-------4--------4---------------|
D|------------------------------------------|
A|------------------------------------------|
E|------------------------------------------|



   C9              D5
E|-----------------------5------------------|
B|---3---3-----3-----5--------5-------------|
G|-5---5---------5-7---7----7---7-----------|
D|------------------------------------------|
A|------------------------------------------|
E|------------------------------------------|



   G
E|-----7-----8-------5-----7----------------|
B|---8---8-----8---8---8-----8--------------|
G|-7-------7-----7-------7-----7------------|
D|------------------------------------------|
A|------------------------------------------|
E|------------------------------------------|



(Guitarra Solo)


E|---------10--10/12--10------------------------------|
B|-8-10/12----------------12\10--8--------------------|
G|----------------------------------------------------|
D|----------------------------------------------------|
A|----------------------------------------------------|
E|----------------------------------------------------|



Terceira Parte:

        C9           D5
I feel wonderful, because I see
     G         D4/F#   Em
The love light in your eyes
         C9          D5
And the wonder of it all
             C9            D5
Is that you just don't realize
            G       D4/F#  C/E  D5  G  D4/F#  C/E  D5
How much I love you


(Guitarra Base 1)


   C9              D5
E|------------------------------------------|
B|-------3-------------3---3----------------|
G|-----0-----0-------2-------2--------------|
D|---2---------2---0-----------0------------|
A|-3-------------3--------------------------|
E|------------------------------------------|



   G       D4/F#   Em
E|------------------------------------------|
B|-----3-------3-------0--------------------|
G|---4-------0-------0----------------------|
D|-5-----5-4-----4-2------------------------|
A|------------------------------------------|
E|------------------------------------------|



   C9              D5
E|------------------------------------------|
B|-------3-------------3---3----------------|
G|-----0-----0-------2-------2--------------|
D|---2---------2---0-----------0------------|
A|-3-------------3--------------------------|
E|------------------------------------------|



   C9              D5
E|------------------------------------------|
B|-------3---------3------------------------|
G|-----0-----0-----2------------------------|
D|---2---------2---0------------------------|
A|-3-------------3--------------------------|
E|------------------------------------------|



   G               D4/F#
E|------------------------------------------|
B|-----3-----3---------3-----3--------------|
G|---4-----4---4-----0-----0---0------------|
D|-5-----5-------5-4-----4-------4----------|
A|------------------------------------------|
E|------------------------------------------|



   C/E             D5
E|------------------------------------------|
B|-----1-----1---------3-----3--------------|
G|---0-----0---0-----2-----2---2------------|
D|-2-----2-------2-0-----0-------0----------|
A|------------------------------------------|
E|------------------------------------------|



   G               D4/F#
E|------------------------------------------|
B|-----3-----3---------3-----3--------------|
G|---4-----4---4-----0-----0---0------------|
D|-5-----5-------5-4-----4-------4----------|
A|------------------------------------------|
E|------------------------------------------|



   C/E             D5
E|------------------------------------------|
B|-----1-----1---------3-----3--------------|
G|---0-----0---0-----2-----2---2------------|
D|-2-----2-------2-0-----0-------0----------|
A|------------------------------------------|
E|------------------------------------------|



(Guitarra Base 2)


   C9              D5
E|-------3-------------5--------------------|
B|---3---------3-----5---5-----5------------|
G|-5---5---------5-7---------7---7----------|
D|------------------------------------------|
A|------------------------------------------|
E|------------------------------------------|



   G       D4/F#   Em
E|-----7-------5-------3--------------------|
B|---8---8---7---7---5---5-----5------------|
G|-7-------7-------4---------4---4----------|
D|------------------------------------------|
A|------------------------------------------|
E|------------------------------------------|



   C9              D5
E|-------3---------------5------------------|
B|---3-------3---3---5-------5---7----------|
G|-5---5-------5---7---7-------7------------|
D|------------------------------------------|
A|------------------------------------------|
E|------------------------------------------|



   C9              D5
E|-------3---------5------------------------|
B|---3-------3---3-5------------------------|
G|-5---5-------5---7------------------------|
D|------------------------------------------|
A|------------------------------------------|
E|------------------------------------------|



   G               D4/F#
E|------------------------------------------|
B|-----3-----3---------3-----3--------------|
G|---4-----4---4-----0-----0---0------------|
D|-5-----5-------5-4-----4-------4----------|
A|------------------------------------------|
E|------------------------------------------|



   C/E             D5
E|------------------------------------------|
B|-----1-----1--------0--1--/5--------------|
G|---0-----0---0---2--0--2--/5--------------|
D|-2-----2---------4------------------------|
A|------------------------------------------|
E|------------------------------------------|



   G               D4/F#
E|---------------------5--------------------|
B|-3-----------------7---7-----7------------|
G|-4---------------7---------7---7----------|
D|-5----------------------------------------|
A|------------------------------------------|
E|------------------------------------------|



   C/E             D5
E|-------3----------------------------------|
B|---3-------3--------0--1--/5--------------|
G|-5---5-------5---2--0--2--/5--------------|
D|-----------------4------------------------|
A|------------------------------------------|
E|------------------------------------------|



(Guitarra Solo)


E|----------------------------------------------------|
B|-10b12r10-8-10~---10b12r10-8------10b12r10-8--------|
G|-----------------------------9~---------------------|
D|----------------------------------------------------|
A|----------------------------------------------------|
E|----------------------------------------------------|



E|-----7--7h8--10/12--10~-----------------------------|
B|-10-------------------------------------------------|
G|----------------------------------------------------|
D|----------------------------------------------------|
A|----------------------------------------------------|
E|----------------------------------------------------|



E|----------------------------------------------------|
B|-10b12r10-8-10~-----10b12r10-8------10b12r10-8------|
G|------------------9------------9~-------------------|
D|----------------------------------------------------|
A|----------------------------------------------------|
E|----------------------------------------------------|



E|----------------10h12--10~--------------------------|
B|-10--12--12/13--------------------------------------|
G|----------------------------------------------------|
D|----------------------------------------------------|
A|----------------------------------------------------|
E|----------------------------------------------------|



Quarta Parte:

G                  D4/F#
  It's time to go home now
C/E                     D5
    I've got an aching head
G                       D4/F#
  So I'll give her the car keys
C/E                    D5
    She'll help me to bed
C9                D5
   And then I'll tell her
G       D4/F#        Em
  As I turn out the light
           C9
I say, my darling
          D5          G    D4/F#  Em  D5
You were wonderful tonight
        C9
Oh, my darling
          D5
You were wonderful tonight


(Guitarra Base 1)


   G               D4/F#
E|------------------------------------------|
B|-----3-----3---------3-----3--------------|
G|---4-----4---4-----0-----0---0------------|
D|-5-----5-------5-4-----4-------4----------|
A|------------------------------------------|
E|------------------------------------------|



   C/E             D5
E|------------------------------------------|
B|-----1---------------3---3----------------|
G|---0---------------2-------2---2----------|
D|-2-----2---------0-----0-----0------------|
A|------------------------------------------|
E|------------------------------------------|



   G               D4/F#
E|------------------------------------------|
B|-----3-----3---------3-------3------------|
G|---4-----4---4-----0---0-------0----------|
D|-5-----5-------5-4---------4--------------|
A|------------------------------------------|
E|------------------------------------------|



   C/E             D5
E|------------------------------------------|
B|-----1---------------3---3----------------|
G|---0---------------2-------2--------------|
D|-2-----2---------0-----0-----0-0----------|
A|------------------------------------------|
E|------------------------------------------|



   C9             D5
E|------------------------------------------|
B|--------------------3------3--------------|
G|-------0----------2---2------2------------|
D|---2------2-----0--------0----------------|
A|-3---3-------3----------------------------|
E|------------------------------------------|



   G       D4/F#   Em
E|------------------------------------------|
B|-----3-------3-------0--------------------|
G|---4-------0-------0---0------------------|
D|-5-----5-4-----4-2-----2------------------|
A|------------------------------------------|
E|------------------------------------------|



       C9             D5
E|------------------------------------------|
B|-----------------------------3------------|
G|-----------0----------2---2----2----------|
D|-------2------2---2-0---0--------0--------|
A|-0-2-3---3------3-------------------------|
E|------------------------------------------|



   G       D4/F#   Em      D5
E|------------------------------------------|
B|-----3-------3-------0-------3------------|
G|---4-------0-------0-------2--------------|
D|-5-----5-4-----4-2-----2-0-----0----------|
A|------------------------------------------|
E|------------------------------------------|



   C9             D5
E|------------------------------------------|
B|--------------------3---------------------|
G|-----0----0-------2---2-----2-------------|
D|---2---2-----2--0--------0----------------|
A|-3----------------------------------------|
E|------------------------------------------|



(Guitarra Base 2)


   G               D4/F#
E|------------------------5-----------------|
B|-3------------------------7---------------|
G|-4----------------------------7\----------|
D|-5--------------------------7-------------|
A|------------------------------------------|
E|------------------------------------------|



   C/E             D5
E|---------------------5---2---0-2/---------|
B|-------------------3---3---3--------------|
G|-5----------------------------------------|
D|-----------------0------------------------|
A|------------------------------------------|
E|------------------------------------------|



   G               D4/F#
E|---7---------------5----------------------|
B|-----8---------------7---5\3-3h5-3\-------|
G|-7-----7---------7-----7-----2---0--------|
D|------------------------------------------|
A|------------------------------------------|
E|------------------------------------------|



   C/E             D5
E|--------3----------5-----5----------------|
B|-1--1----------------7-----7--------------|
G|------0----------7-----7-----7\-----------|
D|------------------------------------------|
A|------------------------------------------|
E|------------------------------------------|



   C9              D5
E|-------3-------------------5--------------|
B|---3------3--------5---7-----7------------|
G|-5---5-------5---7---7--------------------|
D|------------------------------------------|
A|------------------------------------------|
E|------------------------------------------|



   G       D4/F#   Em
E|-----7-------5-------3-----3--------------|
B|---8-------7-------5---5-----5------------|
G|-7-------7-------4-----4-------4----------|
D|------------------------------------------|
A|------------------------------------------|
E|------------------------------------------|



       C9          D5
E|-------3---------------5------------------|
B|---3---------------5-------5--------------|
G|-5---5-----------7---7-------7------------|
D|------------------------------------------|
A|------------------------------------------|
E|------------------------------------------|



   G       D4/F#   Em      D5
E|-----7-------5-------3-------0------------|
B|---8---8---7---7---5---5---3---3----------|
G|-7-------7-------4-------2----------------|
D|------------------------------------------|
A|------------------------------------------|
E|------------------------------------------|



   C9             D5
E|-----------------------5------------------|
B|---5---5-3---5-----5-------5--------------|
G|-5---5-----5---5-7---7-------7------------|
D|------------------------------------------|
A|------------------------------------------|
E|------------------------------------------|



(Guitarra Solo)


E|----------------------------------------------------|
B|-8b10----b10r8-8------------------------------------|
G|-----------------9-7h9-7----------------------------|
D|-------------------------9\7-5----------------------|
A|----------------------------------------------------|
E|----------------------------------------------------|



E|----------------------------------------------------|
B|----------------------------------------------------|
G|----------------------------------------------------|
D|----------------------------------------------------|
A|----------------------------------------------------|
E|----------------------------------------------------|



Final: G  D4/F#  C/E  D5
       G  D4/F#  C/E  D5
       G


(Guitarra Base 1)


   G               D4/F#
E|------------------------------------------|
B|-----3-----3---------3-----3--------------|
G|---4-----4---4-----0-----0---0------------|
D|-5-----5-------5-4-----4-------4----------|
A|------------------------------------------|
E|------------------------------------------|



   C/E             D5
E|------------------------------------------|
B|-----1-----1---------3-----3--------------|
G|---0-----0---0-----2-----2---2------------|
D|-2-----2-------2-0-----0-------0----------|
A|------------------------------------------|
E|------------------------------------------|



   G               D4/F#
E|------------------------------------------|
B|-----3-----3---------3-----3--------------|
G|---4-----4---4-----0-----0---0------------|
D|-5-----5-------5-4-----4-------4----------|
A|------------------------------------------|
E|------------------------------------------|



   C/E             D5              G
E|------------------------------------------|
B|-----1-----1---------3-----3-----3--------|
G|---0-----0---0-----2-----2---2---4--------|
D|-2-----2-------2-0-----0-------0-5--------|
A|------------------------------------------|
E|------------------------------------------|



(Guitarra Base 2)


   G               D4/F#
E|-------7---------------5------------------|
B|---8--------8------7-------7--------------|
G|-7---7--------7--7---7-------7------------|
D|------------------------------------------|
A|------------------------------------------|
E|------------------------------------------|



   C/E             D5
E|-------3----------------------------------|
B|---5----------5-----0--1--/5--------------|
G|-5---5------5----2--0--2--/5--------------|
D|-----------------4------------------------|
A|------------------------------------------|
E|------------------------------------------|



   G               D4/F#
E|-----------------------5------------------|
B|-3-----------------7----------7-----------|
G|-4---------------7---7------7-------------|
D|-5----------------------------------------|
A|------------------------------------------|
E|------------------------------------------|



   C/E             D5              G
E|-------3---------5/7--8---10/12--10-------|
B|---5----------5--7/8--10--12/13--12-------|
G|-5---5------5-----------------------------|
D|------------------------------------------|
A|------------------------------------------|
E|------------------------------------------|



(Guitarra Solo)


E|------------------------10--------------------------|
B|-10b12r10-8-10----10b12----b12r10----8---8----------|
G|---------------------------------------9------------|
D|----------------------------------------------------|
A|----------------------------------------------------|
E|----------------------------------------------------|



E|-8/10----8h10----8----10\---------------------------|
B|----------------------------------------------------|
G|----------------------------------------------------|
D|----------------------------------------------------|
A|----------------------------------------------------|
E|----------------------------------------------------|



E|----------------------------------------------------|
B|-10b12r10-8-10~---10b12r10-8------10b12r10-8--------|
G|-----------------------------9~---------------------|
D|----------------------------------------------------|
A|----------------------------------------------------|
E|----------------------------------------------------|



E|--------8--10h12--10~-------------------------------|
B|-10/12----------------------------------------------|
G|----------------------------------------------------|
D|----------------------------------------------------|
A|----------------------------------------------------|
E|----------------------------------------------------|
Texto Columnas
Alterar tom ½ tono ½ tono
sintonización acordes esconder tabs más »

Comentarios 10

  • Gustavo Gustavo: Publicado en 13/07/2014 21:31

    Tinha tirado essa numa versão mais simples, mas agr #partiu tirar essa versão!!!

  • lepro41 lepro41: Publicado en 11/09/2013 00:09

    Na verdade não é muito difícil, é uma das mais fáceis do Clapton, mas o que a torna foda é a sua letra maravilhosa!

  • LuizFelipcb LuizFelipcb: Publicado en 09/06/2013 16:03

    Uma bela música, merece uma vídeo aula rsrs

  • marco marco: Publicado en 15/05/2013 08:58

    Música complexa !! Merece Vídeo Aulaaa!!!!

  • jorgealamir jorgealamir: Publicado en 02/04/2013 05:02

    preguiça não deixa tocá-la

    • marco marco: Publicado en 15/05/2013 08:58

      kkkk verdade.

  • gabrielpires97 gabrielpires97: Publicado en 29/01/2013 18:07

    vídeo aulaaaaa,por favor

  • ozzybramili ozzybramili: Publicado en 23/12/2012 00:06

    Faz vídeo aula

  • rickbond rickbond: Publicado en 17/12/2012 14:31

    Essa música é muito bonita.

  • soustira soustira: Publicado en 22/06/2012 01:38

    Merecia video aula,é muito linda essa musica.

Composición: Ari Claudio Cyrne / Eric Clapton / Mark Batson / Michael Kamen / Sandra St. Victor
Ese no és el compositor? Avisenos.
Contribución: Max Correcciónes: v.inny e mais 2 »
  1. Sweet Child O' Mine - Guns N' Roses mantiene 3.210 exhibiciones
  2. Wonderwall - Oasis mantiene 2.326 exhibiciones
  3. All Of Me - John Legend mantiene 2.112 exhibiciones
  4. Nothing Else Matters - Metallica mantiene 1.884 exhibiciones
  5. Stairway To Heaven - Led Zeppelin mantiene 1.612 exhibiciones
  6. When I Was Your Man - Bruno Mars mantiene 1.566 exhibiciones
  7. More Than Words - Extreme mantiene 1.421 exhibiciones
  8. The Scientist - Coldplay mantiene 1.395 exhibiciones
  9. I'm Yours - Jason Mraz mantiene 1.379 exhibiciones
  10. Hey Jude - The Beatles mantiene 1.275 exhibiciones
  1. The Beatles- mantiene 22.332 exhibiciones
  2. Guns N' Roses- mantiene 7.877 exhibiciones
  3. Metallica- mantiene 7.403 exhibiciones
  4. Coldplay- mantiene 5.304 exhibiciones
  5. Nirvana- mantiene 5.118 exhibiciones
  6. Oasis- mantiene 5.037 exhibiciones
  7. One Direction- mantiene 4.960 exhibiciones
  8. Red Hot Chili Peppers- mantiene 4.934 exhibiciones
  9. Bruno Mars- mantiene 4.845 exhibiciones
  10. Ed Sheeran- mantiene 4.211 exhibiciones
Exhibir acordes »

Acordes y tabs

Aprenda

Studio Sol

©1996 - 2014 Cifra Club · el primero, mayor y más accedido del Brasil · 341 mil músicas · 6.3 millones de personas registradas

publicidad
cerrar