Wonderful Tonight

Eric Clapton

 Eric Clapton
Tono: G
		
(intro)


       G       D/F#        C         D
E |-----3---------2---------0---------0-----
B |---3--3------3--3------1--1------3--3----
G |--4-4--4----2-2--2----0-0--0----2-2--2---
D |-5------5--4------4--2------2--0------0--
A |-----------------------------------------
E |-----------------------------------------



E |-----------------------------------------------------------|
B |-----------------------------------------------------------|
G |-------14b-12-14----14b-12----14b-12-14------------~-------|
D |---------------------------14------------------------------|
A |-----------------------------------------------------------|
E |-----------------------------------------------------------|



E |-----------------------------------------------------------|
B |-----------------------------------------12-13-15b-15------|
G |-------14b-12-14----14b-12----14b-12-14------------~-------|
D |---------------------------14------------------------------|
A |-----------------------------------------------------------|
E |-----------------------------------------------------------|


(nos acordes onde estão os asteriscos fica assim)


     G   D/F#    Em
E |---3----0------0--------|
B |-------------0--0-------|
G |--0-0--2-2--0-0--0------|
D |------------------2-----|
A |------------------------|
E |-3----2----0------------|


 G                   D/F#
  It's late in the evening
 C                       D
  She's wondering what clothes to wear
 G                D/F#
  She puts on her make up
 C                  D
  And brushes her long blonde hair
 C               D
  And then she asks me
 (G      D/F#  Em)*
   Do I look alright
              C             D           G     D/F#  C  D
   And I say yes, you look wonderful tonight

 G           D/F#
  We go to a party
 C              D
  And everyone turns to see
 G               D/F#
  This beautiful lady
 C                 D
  That's walking around with me
 C               D
  And then she asks me
 (G       D/F#  Em)*
  Do you feel alright
             C           D           G
  And I say yes, I feel wonderful tonight

          C
  I feel wonderful
     D               (G        D/F# Em)*
  Because I see the love light in your eyes
           C           D
  And the wonder of it all
               C             D
  Is that you just don't realize
              G
  How much I love you

(intro)

 G                 D/F#
  It's time to go home now
 C                   D
  And I've got an aching head
 G                     D/F#
  So I give her the car keys
 C                  D
  She helps me to bed
 C              D
  And then I tell her
 (G     D/F#     Em)*
  As I turn out the light
             C                 D           (G    D/F# Em)*
  I say my darling, you were wonderful tonight
          C                 D           G
  Oh my darling, you were wonderful tonight

(intro)

(versão 2)

(intro)

   G                 D	               F                 D
E |---------8-7-5-7...7......-8-7-5-0...0......58-7-5-7...7..............-|
B |-------0---------|-----7-----------|-----------------|-----7-----------|
G |-----0-----------|---7---7..-------|---0-5-0.0......-|---7---7---7---7-|
D |---0-------------|-0..............-|-----------------|-0......-----0---|
A |-----------------|-----------------|-3......---------|---------0-------|
E |-3......---------|-----------------|-----------------|-----------------|


Verse 1:

   G                 D	               F                 D
E |---------8-7-5-7...7......-8-7-5-0...0......58-7-5-7...7..-8..-10.-14.-|
B |-------0---------|-----7-----------|-----------------|---7---7---------|
G |-----0-----------|---7---7..-------|---0-5-0.0......-|-----------------|
D |---0-------------|-0..............-|-----------------|-0..............-|
A |-----------------|-----------------|-3......---------|---------0-------|
E |-3......---------|-----------------|-----------------|-----------------|



   G                 D                 C                 D
E |-----------------|-----------------|-----------------|-----------------|
B |---------0-1-0..-|-----3....-------|---------1-1-0..-|-0.--------------|
G |----0.......-----|-2---------------|-------0---------|----2-2....------|
D |------0----------|-0....-020-----0-|-----------------|-0......-0-2-0---|
A |-----------------|-----------0-2---|-3..-3..-3......-|---------------0-|
E |-3..-------------|-----------------|-----------------|-----------------|



   G                 D                 C                 D
E |-----------------|-----------------|-----------------|-----------------|
B |---------0-1-0..-|---3.....3......-|---------0-1-0..-|-0---------------|
G |-----------------|-2---------2-----|-----0-0---------|---2---2.2..---2-|
D |-----0-0---------|-------0-0---0..-|-----------------|-0......-0..-0---|
A |-----------------|-----------------|-3......-3......-|-----------------|
E |-3......-3......-|-2....-------0..-|-----------------|-----------------|



   C                 D                 G       D         Em
E |---------0-0-0..-|-----------------|-----------------|-----------------|
B |-----------------|-3---------------|-----0-0-0..-3..-|---------------0-|
G |-0..-0-----------|-----2...--2-----|-----0---2......-|-0......---0-2---|
D |-----------------|-0...--0-0---0..-|-----------------|-------2---------|
A |-3..---3.3......-|-----------------|-----------------|-----2-----------|
E |-----------------|-----------------|-3......-2......-|-0..-----0......-|



   C                 D                 G                 D
E |-----------------|-----------------|-----------------|-----------------|
B |-1-1....-1..-0..-|---------0-------|---------0-------|---------0-------|
G |-------0---------|-2-2....---2-----|-0---------2-0-2...2......---2-0---|
D |-----------------|-0..-0..-0..-0..-|-----------------|-0..-0...0....-2..
A |-3..-3---3......-|-----------------|-----------------|-----------------|
E |-----------------|-----------------|-3..-3...3......-|-----------------|



   C                 D
E |-----------------|-------------0..-|
B |---------0-------|-----0..-1..-----|
G |-----------2-----|-2..-------------|
D..2......-----0..-|-0.......0-0....-|
A |-3..-3...3......-|-----------------|
E |-----------------|-----------------|



Verse 2:

   G                 D                 C                 D
E |-----------------|-----------------|-----------------|-----------------|
B |---------0-1-0..-|-----3....-------|---------1-1-0..-|-0.--------------|
G |----0.......-----|-2---------------|-------0---------|----2-2....------|
D |------0----------|-0....-020-----0-|-----------------|-0......-0-2-0---|
A |-----------------|-----------0-2---|-3..-3..-3......-|---------------0-|
E |-3..-------------|-----------------|-----------------|-----------------|



   G                 D                 C                 D
E |-----------------|-----------------|-----------------|-----------------|
B |---------0-1-0..-|---3.....3......-|---------0-1-0..-|-0---------------|
G |-----------------|-2---------2-----|-----0-0---------|---2---2.2..---2-|
D |-----0-0---------|-------0-0---0..-|-----------------|-0......-0..-0---|
A |-----------------|-----------------|-3......-3......-|-----------------|
E |-3......-3......-|-2....-------0..-|-----------------|-----------------|



   C                 D                 G       D         Em
E |---------0-0-0..-|-----------------|-----------------|-----------------|
B |-----------------|-3---------------|-----0-0-0..-3..-|---------------0-|
G |-0..-0-----------|-----2...--2-----|-----0---2......-|-0......---0-2---|
D |-----------------|-0...--0-0---0..-|-----------------|-------2---------|
A |-3..---3.3......-|-----------------|-----------------|-----2-----------|
E |-----------------|-----------------|-3......-2......-|-0..-----0......-|



   C                 D                 C                 D
E |-----------------|-----------------|-0..-0-0.0....---|-----------------|
B |-1-1....-1..-0..-|---------0-------|-----------------|-3..-3-3.3....-1-|
G |-------0---------|-2-2....---2-----|-0......-------0-|-----------------|
D |-----------------|-0..-0..-0..-0..-|-----------------|-0......-0..-0..-|
A |-3..-3---3......-|-----------------|-3......-3..-3..-|-----------------|
E |-----------------|-----------------|-----------------|-----------------|



   G       D         Em                C                 D
E |-----------------|-----------------|-0-0.....0..-0---|-----------------|
B |-0..-0-0-0-3....-|-------------1-3-|-----------------|-3..-3..-------0-|
G |-0......-2......-|-0........-------|-0..---0-------0-|-------2---2-2---|
D |-------------0..-|-------2---------|-----------------|-0....---0......-|
A |-----------------|-----2-----------|-3..-3---3......-|-----------------|
E |-3......-2..-----|-0..-----0..-----|-----------------|-----------------|



   C                 D                 G                 D
E |-----------------|-----------------|-----------------|-----------------|
B |-1..-0..---------|-------0.0..-----|-----0..-0-------|---------0-------|
G |---------2..-0..-|-2..-2-------0..-|-0..-------2---2...2......---2-0---|
D |-----------------|-0......-0......-|-------------0---|-0..-0...0....-2..
A |-3......-3......-|-----------------|-----------------|-----------------|
E |-----------------|-----------------|-3......-3......-|-----------------|



   C                 D                 G                 D
E |-----------------|-------------0..-|-----------------|-----------------|
B |---------0-------|-----0..-1..-----|---------0-------|---------0-------|
G |-----------2-----|-2..-------------|-----0-----2-0-2...2......---2-0---|
D..2......-----0---|-0.......0-0....-|---0---0.0......-|---0-0-0.0....-2-|
A |-3..-3...3......-|-----------------|-----------------|-----------------|
E |-----------------|-----------------|-3---------------|-----------------|



   C                 D
E |-----------------|-------------0..-|
B |---------0-------|-----0..-1..-----|
G |-------0---2-----|-2..-------------|
D..2..-2-------0..-|-0.......0-0....-|
A |-3-3-------------|-----------------|
E |-----------------|-----------------|



Verse 3:

   G                 G                 C                 D
E |-----------------|-----------------|-0..-0-0.0....---|-----------------|
B |---------0-------|---------0..-3..-|-----------------|-3..-3-3.3....-1-|
G |-0..-------0---0...0......---------|-0......-------0-|-----------------|
D |-----0..-----0---|-----------------|-----------------|-0......-0..-0..-|
A |-----------------|-----------------|-3......-3..-3..-|-----------------|
E |-3..............-|-3..-3..---------|-----------------|-----------------|



   G       D         Em                C                 D
E |-----------------|-----------------|-0-0.....0..-0---|-----------------|
B |-0..-0-0-0-3....-|-------------1-3-|-----------------|-3..-3..-------0-|
G |-0......-2......-|-0........-------|-0..---0-------0-|-------2---2-2---|
D |-------------0..-|-------2---------|-----------------|-0....---0......-|
A |-----------------|-----2-----------|-3..-3---3......-|-----------------|
E |-3......-2..-----|-0..-----0..-----|-----------------|-----------------|



   C                 D                 G                 D
E |-----------------|-----------------|-----------------|-----------------|
B |-1..-0..---------|-------0.0..-----|-----0..-0-------|---------0-------|
G |---------2..-0..-|-2..-2-------0..-|-0..-------2---2...2......---2-0---|
D |-----------------|-0......-0......-|-------------0---|-0..-0...0....-2..
A |-3......-3......-|-----------------|-----------------|-----------------|
E |-----------------|-----------------|-3......-3......-|-----------------|



   C                 D                 G                 D
E |-----------------|-------------0..-|-----------------|-----------------|
B |---------0-------|-----0..-1..-----|---------0-------|---------0-------|
G |-----------2-----|-2..-------------|-----0-----2-0-2...2......---2-0---|
D..2......-----0---|-0.......0-0....-|---0---0.0......-|---0-0-0.0....-2-|
A |-3..-3...3......-|-----------------|-----------------|-----------------|
E |-----------------|-----------------|-3---------------|-----------------|



   C                 D                 G                 D
E |-----------------|-------------0..-|-----------------|-----------------|
B |---------0-------|-----0..-1..-----|---------0-------|---------0-------|
G |-------0---2-----|-2..-------------|-0......---2-0-2...2......---2-0---|
D..2..-2-------0..-|-0.......0-0....-|-----0...0......-|-0..-0...0....-2..
A |-3-3-------------|-----------------|-----------------|-----------------|
E |-----------------|-----------------|-3..-------------|-----------------|



   C                 D                 G                 D
E |-----------------|-------------0..-|-----------------|-----------------|
B |---------0-------|-----0..-1..-----|---------0-------|---------0-------|
G |-----------2-----|-2..-------------|-----0-----2-0-2...2......---2-0---|
D..2......-----0..-|-0.......0-0....-|---0---0.0......-|---0-0-0.0....-2..
A |-3..-3...3......-|-----------------|-----------------|-----------------|
E |-----------------|-----------------|-3---------------|-----------------|



   C                 G
E |-----------------|-----------------||
B |-----------0-----|-----------------||
G |-------0-2-----0...0..............-||
D..2..-2---0..-0---|-----------------||
A |-3-3-------------|-----------------||
E |-----------------|-3..............-||
Texto Columnas
Alterar tom ½ tono ½ tono
sintonización acordes esconder tabs más »

Comentarios (9)

  • lepro41 lepro41: Publicado en 11/09/2013 00:09

    Na verdade não é muito difícil, é uma das mais fáceis do Clapton, mas o que a torna foda é a sua letra maravilhosa!

  • LuizFelipcb LuizFelipcb: Publicado en 09/06/2013 16:03

    Uma bela música, merece uma vídeo aula rsrs

  • marco marco: Publicado en 15/05/2013 08:58

    Música complexa !! Merece Vídeo Aulaaa!!!!

  • jorgealamir jorgealamir: Publicado en 02/04/2013 05:02

    preguiça não deixa tocá-la

    • marco marco: Publicado en 15/05/2013 08:58

      kkkk verdade.

  • gabrielpires97 gabrielpires97: Publicado en 29/01/2013 18:07

    vídeo aulaaaaa,por favor

  • ozzybramili ozzybramili: Publicado en 23/12/2012 00:06

    Faz vídeo aula

  • rickbond rickbond: Publicado en 17/12/2012 14:31

    Essa música é muito bonita.

  • soustira soustira: Publicado en 22/06/2012 01:38

    Merecia video aula,é muito linda essa musica.

Composición: Ari Claudio Cyrne / Eric Clapton / Mark Batson / Michael Kamen / Sandra St. Victor
Ese no és el compositor? Avisenos.
Contribución: Max Correcciónes: Neo e mais 1 »
  1. Sweet Child O' Mine - Guns N' Roses mantiene 2.750 exhibiciones
  2. Wonderwall - Oasis mantiene 2.197 exhibiciones
  3. Hey Jude - The Beatles mantiene 1.966 exhibiciones
  4. Nothing Else Matters - Metallica mantiene 1.737 exhibiciones
  5. Stairway To Heaven - Led Zeppelin mantiene 1.643 exhibiciones
  6. Wake Me Up - Avicii mantiene 1.572 exhibiciones
  7. When I Was Your Man - Bruno Mars mantiene 1.487 exhibiciones
  8. More Than Words - Extreme mantiene 1.363 exhibiciones
  9. Get Lucky - Daft Punk mantiene 1.334 exhibiciones
  10. Don't Let Me Down - The Beatles mantiene 1.248 exhibiciones
  1. The Beatles- mantiene 23.988 exhibiciones
  2. Metallica- mantiene 8.050 exhibiciones
  3. Guns N' Roses- mantiene 7.403 exhibiciones
  4. Nirvana- mantiene 6.196 exhibiciones
  5. Red Hot Chili Peppers- mantiene 5.550 exhibiciones
  6. One Direction- mantiene 5.389 exhibiciones
  7. Coldplay- mantiene 4.749 exhibiciones
  8. Bruno Mars- mantiene 4.574 exhibiciones
  9. Oasis- mantiene 4.374 exhibiciones
  10. Green Day- mantiene 3.363 exhibiciones
Exhibir acordes »

Acordes y tabs

Aprenda

Studio Sol

©1996 - 2014 Cifra Club · el primero, mayor y más accedido del Brasil · 329 mil músicas · 6.0 millones de personas registradas

publicidad
cerrar