Tears in Heaven

Eric Clapton

 Eric Clapton
Tono: G
		
(intro) A   E   F#m   F#m/E   D   E

(primeira parte)

A             E      F#m  F#m/E
  Would you know my name
D       A             E
  If I saw you in heaven?
A           E      F#m  F#m/E
  Would it be the same
D       A             E
  If I saw you in heaven?

(segunda parte)

F#m            Db/F
  I must be strong
A7/E        F#7
  And carry on
           Bm7           E
'Cause I know I don't belong

Here in heaven

(repete intro)

(primeira parte com variação na letra)

A            E       F#m  F#m/E
  Would you hold my hand
D       A             E
  If I saw you in heaven?
A            E        F#m  F#m/E
  Would you help me stand
D       A             E
  If I saw you in heaven?

(segunda parte com variação na letra)

F#m             Db/F
  I'll find my way
A7/E                 F#7
  Through night and day
           Bm7             E
'Cause I know I just can stay

Here in heaven

(repete intro)

(terceira parte)

C            G/B      Am7
  Time can bring you down
          D          G   D   Em
Time can bend your knees
C            G/B       Am7
  Time can break your heart
          D        G    D
Have you begging please
          E
Begging please

(repete intro)

(segunda parte com variação)

F#m           Db/F
  Beyond the door
A7/E                 F#7
  There's peace I'm sure
        Bm7                E
And I know there'll be no more

Tears in heaven

(repete intro com variação)

(primeira parte)

A             E      F#m  F#m/E
  Would you know my name
D       A             E
  If I saw you in heaven?
A           E      F#m  F#m/E
  Would it be the same
D       A             E
  If I saw you in heaven?

(segunda parte)

(dedilhado igual ao da segunda parte)

F#m            Db/F
  I must be strong
A7/E        F#7
  And carry on
           Bm7            E
'Cause I know I don't belong

(final)
            A   E  F#m
Here in heaven
  F#m/E    Bm7           E
'Cause I know I don't belong
            A   E   F#m   F#m/E   D   E   A
Here in heaven

(dedilhado intro)


        A        E       F#m      F#m/E
E|------0---0----0---0----2---2----2---2---|
B|------2---2----0---0----2---2----2---2---|
G|------2---2----1---1----2---2----2---2---|
D|-----------------------------------------|
A|------0-0---0----------------------------|
E|--0h2----------0-0---0--2-2---2--0-0---0-|



    D        E        A
E|--2---2----0---0----0---0----0---0-------|
B|--3---3----0---0----2---2----2---2-------|
G|--2---2----1---1----2---2----2---2-------|
D|--0-0---0--------------------------------|
A|--------------------0-0---0--0-0---------|
E|-----------0-0---0-----------------------|


(dedilhado primeira parte)


        A        E       F#m       F#m/E
E|------0---0----0---0----2---2----2---2---|
B|------2---2----0---0----2---2----2---2---|
G|------2---2----1---1----2---2----2---2---|
D|-----------------------------------------|
A|------0-0---0----------------------------|
E|--0h2----------0-0---0--2-2---2--0-0---0-|



    D        A        E
E|--2---2----0---0----0---0----0---0-------|
B|--3---3----2---2----0---0----0---0-------|
G|--2---2----2---2----1---1----1---1-------|
D|--0-0---0--------------------------------|
A|-----------0-0---0-----------------------|
E|--------------------0-0---0--0-0---0-----|


(dedilhado primeira parte)


        A        E       F#m       F#m/E
E|------0---0----0---0----2---2----2---2---|
B|------2---2----0---0----2---2----2---2---|
G|------2---2----1---1----2---2----2---2---|
D|-----------------------------------------|
A|------0-0---0----------------------------|
E|--0h2----------0-0---0--2-2---2--0-0---0-|



    D        A        E
E|--2---2----0---0----0---0----0---0-------|
B|--3---3----2---2----0---0----0---0-------|
G|--2---2----2---2----1---1----1---1-------|
D|--0-0---0--------------------------------|
A|-----------0-0---0-----------------------|
E|--------------------0-0---0--0-0---0-----|

Comentarios 13

  • Lord_Darrell Lord_Darrell: Publicado en 25/07/2014 13:19

    sou péssimo em dedilhar

  • Diego Diego: Publicado en 18/05/2014 19:55

    Esqueceram os dedilhados da segunda e da terceira parte

  • Ridien7 Ridien7: Publicado en 27/07/2013 19:42

    Só os professores do cifraclub para fazerem um violão de Nylon chorar assim... tocam demais

  • Luiz Luiz: Publicado en 25/04/2013 22:12

    Vale a pena insistir na versão completa, foi a primeira música que eu aprendi, graças ao cifra club!

  • caiolandim caiolandim: Publicado en 29/05/2012 17:07

    toco na base do improviso, mas igual o cara ainda tá meio foda.. Mas o improviso aqui ficou show! ^^

  • rk0orton rk0orton: Publicado en 24/03/2012 18:47

    leo tu toca d+ ja toquei a versao completa depois de tres dias tentando ,mto fods essa musica mais fods que ela so a historia por tras dela

  • ninhododge ninhododge: Publicado en 11/03/2012 23:42

    vou tentar ,essa musica é muito bonita!

  • juanmabe juanmabe: Publicado en 30/01/2012 17:19

    Muchas gracias!!!! lo hacéis fácil.

  • terrasamba terrasamba: Publicado en 17/01/2012 12:36

    adorei esta video aula, com este professor que e uma fera. parabéns.

  • georodrigues georodrigues: Publicado en 28/07/2011 18:51

    éhh ela é um pouco complicada ein mais não é impossível de aprender a tocar eu consegui!!!! AMO MÚSICA!!!!

Exhibiendo 10 de 13 comentarios Mostrar más ver todo »
Composición: Ari Claudio Cyrne / Eric Clapton / Leslie Bricusse / Sandra St. Victor / Sergio Caetano / Will Jennings
Ese no és el compositor? Avisenos.
Exhibir acordes »
publicidad
cerrar