Change The World

Eric Clapton

 Eric Clapton
Tono: E
		
Intro:


     E7          A9/C#   E/D
E|------------------0-------0--|--0--0--0---------0--|
B|------------------0-------0--|--0--0--0---------0--|
G|-----0h1--x---2-------4------|--------4------4--4--|
D|----------x------------------|---------------------|
A|-----2----x---4-------5------|--------5---5--------|
E|--0-------x------------------|---------------------|



     E/D      A9/C#   E7
E|---------------0---------|--0--0--0---------0--|
B|---------------0---------|--0--0--0---------0--|
G|----4--x---2-------1-----|--------1------1--1--|
D|-------x-----------------|---------------------|
A|----5--x---4-------2-----|--------2---2--------|
E|--0----x-----------------|---------------------|



      E7          A9/C#   E/D
E|-----------0-------0-------0--|--0--0--0---------0--|
B|-----------0-------0-------0--|--0--0--0---------0--|
G|-----0h1-------2-------4------|--------4------4--4--|
D|------------------------------|---------------------|
A|-----2---------4-------5------|--------5---5--------|
E|--0---------------------------|---------------------|



     E/D    A9/C# B11
E|---------------0---|-----------|
B|---------------0---|-----------|
G|----4--x---2---4---|-----------|
D|-------x-------4---|------0----|
A|----5--x---4---2---|--0h2------|
E|--0----x-----------|--------0--|


Primeira parte:


     E7          A9/C#   E/D
E|------------------0-------0--|--0--0--0---------0--|
B|------------------0-------0--|--0--0--0---------0--|
G|-----0h1--x---2-------4------|--------4------4--4--|
D|----------x------------------|--------0------------|
A|-----2----x---4-------5------|--------5---5--------|
E|--0-------x------------------|---------------------|



     E/D      A9/C#   E7
E|---------------0---------|--0--0--0---------0--|
B|---------------0---------|--0--0--0---------0--|
G|----4--x---2-------1-----|--------1------1--1--|
D|-------x-----------------|--------0------------|
A|----5--x---4-------2-----|--------2---2--------|
E|--0----x-----------------|---------------------|



     E7          A9/C#   E/D
E|------------------0-------0--|--0--0--0---------0--|
B|------------------0-------0--|--0--0--0---------0--|
G|-----0h1--x---2-------4------|--------4------4--4--|
D|----------x------------------|--------0------------|
A|-----2----x---4-------5------|--------5---5--------|
E|--0-------x------------------|---------------------|



     E/D      A9/C#   E7
E|---------------0---------|--0--0--0---------0--|
B|---------------0---------|--0--0--0---------0--|
G|----4--x---2-------1-----|--------1------1--1--|
D|-------x-----------------|--------0------------|
A|----5--x---4-------2-----|--------2---2--------|
E|--0----x-----------------|---------------------|



       A7      D9/F#   Em/G
E|--------0-------0------5--|--0--0--0--------0--|
B|----2---2---3---3---5--5--|--5--5--5-----5--5--|
G|--------------------------|--------0-----------|
D|----2-------4-------5-----|--------5--5--------|
A|--0-------0-------0-------|--------------------|
E|--------------------------|--------------------|



     Em/G     D9/F#  A7
E|-------0------0------0--|--0--0--0--------0--|
B|----5--5---3--3---2--2--|--2--2--2-----5--5--|
G|------------------------|--------0-----------|
D|----5------4------2-----|--------2--5--------|
A|--0---------------------|--------------------|
E|------------------------|--------------------|



     E7          A9/C#   E/D
E|------------------0-------0--|--0--0--0---------0--|
B|------------------0-------0--|--0--0--0---------0--|
G|-----0h1--x---2-------4------|--------4------4--4--|
D|----------x------------------|--------0------------|
A|-----2----x---4-------5------|--------5---5--------|
E|--0-------x------------------|---------------------|



     E/D      A9/C#  G#7
E|---------------0--4--4-4-4-4--|
B|---------------0--4--4-4-4-4--|
G|----4--x---2------5--5-5-5-5--|
D|-------x----------4--4-4-4-4--|
A|----5--x---4------6--6-6-6-6--|
E|--0----x----------4--4-4-4-4--|


E7       A9/C#     E/D             A9/C#    E7
If could reach the stars, pull one down for you
E7       A9/C#     E/D             A9/C#    E7
Shine it on the heart, so you could see the truth
A7         D9/F#       Em/G             D9/F#    A7
Then this love i have inside, is everything it seems
E7      A9/C#  E/D             A9/C#    G#7
But for now I find, it's only in my dreams

Refrão:

G#7       F#m  G#7    C#m         F#m        G#7               C#m
That I can change  the world.  I would be the sunlight in  your universe
F#m                 G#7             C#m7  Cm7   Bm7
You would think my love was really some-thing good
     A    E/G#  (E/G# E/G F#m)
Baby if I could, change......  the world

E7  A9/C#  E/D A9/C#  E7

Primeira parte(variação na letra):

E7    A9/C#     E/D        A9/C#  E7
If I could be a king, even for a day
E7     A9/C#     E/D             A9/C#    E7
I take you as my queen, I'd have no other way
A7      D9/F#      Em/G         D9/F#         A7
And our love would rule, this kingdom we have made
E7        A9/C#     E/D          A9/C#   G#7
Till then I'd be a fool, wishin' for the day

Refrão:

G#7       F#m  G#7    C#m         F#m        G#7               C#m
That I can change  the world.  I would be the sunlight in  your universe
F#m                 G#7             C#m7 Cm7   Bm7
You would think our love was really some-thing good
     A7   E/G#  (E/G# E/G F#m)       E
Baby if I could, change         the world
     A7   E/G#  (E/G# E/G F#m)
Baby if I could, change.............  the world

Solo:


E|--------10-10-10-10-10-10--------------------|
B|--10/12-12-12-12-12-12-12---10~--8h10-8---10-|
G|---------------------------------------------|
D|---------------------------------------------|
A|---------------------------------------------|
E|---------------------------------------------|



E|-----------------------------|----------------------------------|
B|--10b12--8-------------------|-------------------8---10b12--8---|
G|-----------9---9--7----------|-------4---7---7-9---9----------9-|
D|-------------9------9p7p5----|----5-----------------------------|
A|--------------------------7--|--7-------------------------------|
E|-----------------------------|----------------------------------|



E|---------10--12-12--|--12-10---------------------------|
B|-----12-------------|--------12-11-10-8---10b12-8------|
G|--9-----------------|-------------------9---------9-9--|
D|--------------------|----------------------------------|
A|--------------------|----------------------------------|
E|--------------------|----------------------------------|



E|--------15--12------12--11------14--12------------|
B|--\12-----------14------13--------------14p12-14--|
G|----------------------------13--------------------|
D|--------------------------------------------------|
A|--------------------------------------------------|
E|--------------------------------------------------|


Refrão:

G#7       F#m  G#7    C#m         F#m        G#7               C#m
And I can change  the world.  I would be the sunlight in  your universe
F#m                 G#7             C#m7 Cm7   Bm7
You would think our love was really some-thing good

     A7   E/G#   (E/G# E/G F#m)
Baby if I could, change the world
     A7   E/G#   (E/G# E/G F#m)
Baby if I could, change the world
     A7   E/G#   (E/G# E/G F#m)
Baby if I could, change     . . . .      the World

Final:


     E7          A9/C#   E/D
E|------------------0-------0--|--0--0--0---------0--|
B|------------------0-------0--|--0--0--0---------0--|
G|-----0h1--x---2-------4------|--------4------4--4--|
D|----------x------------------|---------------------|
A|-----2----x---4-------5------|--------5---5--------|
E|--0-------x------------------|---------------------|



     E/D      A9/C#
E|---------------0---------------------------------------------|
B|---------------0---------------------------------------------|
G|----4--x---2-------------------------------------------------|
D|-------x-----------0h2-0--------------0h2-0---------------2--|
A|----5--x---4-------------2------------------2-----------2----|
E|--0----x-------------------5p3-2h3-0----------5p3-2h3-0------|
Texto Columnas
Alterar tom ½ tono ½ tono
sintonización acordes esconder tabs más »

Comentarios (12)

  • matt37 matt37: Publicado en 24/10/2013 11:14

    www . cifras . com . br

  • matt37 matt37: Publicado en 24/10/2013 11:13

    Mas são acordes difíceis, originais da música, depois não vem com 'mimimi" de que é difícil tocar.

  • matt37 matt37: Publicado en 24/10/2013 11:13

    Tá ai pessoal, eu só vejo cifras nesse site aqui: CIFRAS . COM . BR

  • euzivam euzivam: Publicado en 11/10/2013 20:21

    show das poderosas tem vídeo aula, change the world não.
    Realmente cultura não é uma prioridade no nosso país

  • Karen Karen: Publicado en 04/09/2013 20:28

    Aula Prisss

  • lucas.linkinpark4ever lucas.linkinpark4ever: Publicado en 12/08/2013 15:33

    Na boa, véi.. deveria ter uma vídeo aula...

  • mmargon mmargon: Publicado en 26/01/2013 19:41

    Video aula, por favor!

  • msess msess: Publicado en 01/09/2012 16:46

    VIDEO AULA JA!

  • byn byn: Publicado en 20/07/2012 20:23

    Vários acordes errados...não condizem com a música original.

    • tatagiba31 tatagiba31: Publicado en 20/04/2013 20:58

      Byn por que vc não concerta a musica?

Exhibiendo 10 de 12 comentarios Mostrar más ver todo »
Composición: Aloysio de Oliveira / Anderson / Gary Nicholson / Gérard Jouannest / Harrison Koisser / Jon Stone / Wayne Kirkpatrick
Ese no és el compositor? Avisenos.
Contribución: lethargico Correcciónes: pedrov2000 , WhiteSands e mais 3 »
  1. Sweet Child O' Mine - Guns N' Roses mantiene 2.706 exhibiciones
  2. Wonderwall - Oasis mantiene 2.170 exhibiciones
  3. Hey Jude - The Beatles mantiene 1.953 exhibiciones
  4. Nothing Else Matters - Metallica mantiene 1.730 exhibiciones
  5. Stairway To Heaven - Led Zeppelin mantiene 1.609 exhibiciones
  6. Wake Me Up - Avicii mantiene 1.531 exhibiciones
  7. When I Was Your Man - Bruno Mars mantiene 1.476 exhibiciones
  8. More Than Words - Extreme mantiene 1.368 exhibiciones
  9. Get Lucky - Daft Punk mantiene 1.306 exhibiciones
  10. Don't Let Me Down - The Beatles mantiene 1.253 exhibiciones
  1. The Beatles- mantiene 23.977 exhibiciones
  2. Metallica- mantiene 7.903 exhibiciones
  3. Guns N' Roses- mantiene 7.249 exhibiciones
  4. Nirvana- mantiene 6.045 exhibiciones
  5. One Direction- mantiene 5.535 exhibiciones
  6. Red Hot Chili Peppers- mantiene 5.460 exhibiciones
  7. Coldplay- mantiene 4.717 exhibiciones
  8. Bruno Mars- mantiene 4.601 exhibiciones
  9. Oasis- mantiene 4.313 exhibiciones
  10. Green Day- mantiene 3.276 exhibiciones
Exhibir acordes »

Acordes y tabs

Aprenda

Studio Sol

©1996 - 2014 Cifra Club · el primero, mayor y más accedido del Brasil · 329 mil músicas · 6.0 millones de personas registradas

publicidad
cerrar