Bailamos (Com tablatura)

Enrique Iglesias

 Enrique Iglesias
Tono: C
		
Afinacion standard.
                *  - Acento
                h  - hammer-on
                p  - pull-off
                ~  - vibrato
                .  - cortar el sonido antes de la siguiente nota
   Al final se incluyen las posiciones recomendadas para los acordes.
Intro:
     \        *    *    *

    e ||---------------------------------------------------------
    B ||---------------------------------------------------------
    G ||:-----4h5--4p2--2h4p2------------------------------------
    D ||:--/2------------------3~~~~-2h3p2h3p2~~~~---------------
    A ||---------------------------------------------------------
    E ||---------------------------------------------------------

     /
Intro 2:
     \        *    *    *

    e ||---------------------------------------------------------
    B ||---------------------------------------------------------
    G ||:-----4h5--4p2--2h4p2------------------------------------
    D ||:---2------------------3~~~~-2h3p2h0p2~~~~---------------
    A ||---------------------------------------------------------
    E ||---------------------------------------------------------

     /
     \         .   .   .

    e ||-------3---1---0--------------------
    B ||----------------3---1p0-------------
    G ||:---2------------------2~~~~~-------
    D ||:-----------------------------------
    A ||------------------------------------
    E ||------------------------------------

     /
                                Bailamos :
(-- INTRO1 --)
        Esta noche bailamos
        te doy toda mi vida
(-- INTRO2 --)  (quedate conmigo) 
        Am              Dm
        tonight weïll dance
        G7             F7           Am
        iïll leave my life in your hands
        Am              Dm
        we take the floor
        G7             F7           E
        nothing is forbiden anymore
                        Am
        donït let the world be ________
                        F7
        donït let the world ___________
        C             G7     E
        nothing can stop us tonight
Chorus:       Am           G7            F7
        bailamos, and the rithm take you over
              Am        G7       F7
        bailamos, te quiero amor mio
              Am           G7            F7
        bailamos, wanna live this night forever
              Am        G7       F7        E
        bailamos, te quiero amor mio, te quiero
        (-- SOLO1 --)    ¢   [ ( Am - Dm ) x 2 ]
        Am              Dm
        tonight iïm yours
        G7             F7           Am
        we can make it happen not so short
        Am              Dm
        now iïm letting go
        G7             F7           E
        there is something ________ now
                        Am
        i wont believe in your side
                        F7
        weïll coming dance throught the night
        C        G7           E
        i wanna rise to the stars
        .CHORUS.
        Am       G7      F7
        uoh, tonight we dance
        Am       G7      F7
        uoh, but no 
        Am       G7      F7         Am
        uoh, if you would stay with me
        E
        (te quiero, mi amor)
        (-- SOLO2 --)   ¢  [ ( Am - Dm ) x 2 ]

                (quedate conmigo)          |durante el SOLO2

                (esta noche... bailamos)   |
        .CHORUS. x 2
        como te quiero, como te quiero... |DURANTE .CHORUS. la segunda vez
        como te quiero, como te quiero... |
Solo 1:
     \                                         *

    e ||----------------------------------------------------------
    B ||--------------------------3---1--0------------------------
    G ||:-----------2~~~~---2/5--4----------2--2~~~~--------------
    D ||:---------------------------------------------------------
    A ||----------------------------------------------------------
    E ||----------------------------------------------------------

     /
     \

    e ||------------------------------------------------------------
    B ||-------------5h6---5h6----5-----3~~~~--------1p0------------
    G ||:--------------------------5--------------------2p0h2~~~~---
    D ||:-----------------------------------------------------------
    A ||------------------------------------------------------------
    E ||------------------------------------------------------------

     /
Solo 2:
     \

    e ||-----------------------------------------------------
    B ||-----1------------1-0--1----3--1---3/5--3~~~~~~~--\--
    G ||:---2--2/4--2----2----2------------------------------
    D ||:--2------------2------------------------------------
    A ||-----------------------------------------------------
    E ||-----------------------------------------------------

     /
     \

    e ||------------------------------------------------------------------
    B ||--6--5p3--5h6-5p3-5---6-p5-3---6/8--6p5--3h5p3--1p0---1p0--3~~~---
    G ||:---------------------------------------------------1-------------
    D ||:-----------------------------------------------------------------
    A ||------------------------------------------------------------------
    E ||------------------------------------------------------------------

     /
     \               *

    e ||------8h10--10~~-----10/12--10--------8p7---7---------8p7---7-----
    B ||--10-------------10----------------10-----8---10---10-----8---10--
    G ||:-----------------------------------------------------------------
    D ||:-----------------------------------------------------------------
    A ||------------------------------------------------------------------
    E ||------------------------------------------------------------------

     /
     \

    e ||----7---5---------------------------------------------------
    B ||-----------8--7---------------------------------------------
    G ||:-----------------------------------------------------------
    D ||:-----------------------------------------------------------
    A ||------------------------------------------------------------
    E ||------------------------------------------------------------

     /




CIFRA
=====


Intro:    Am       Dm        Am        Dm 
 

Am         Dm 
Tonight we dance
G             F            Am
I'll leave my life in your hands.
Am          Dm 
We take the floor
G          F            E
Nothing is forbidden anymore.
Am                          
Don't let the world in outside
            F 
Don't let a moment go by
C           G         E
Nothing can stop us tonight

Am 
Bailamos
        G               F
Let the rhythm take you over,
Am 
Bailamos
G        F
Tikiero, Momomio,
Am 
Bailamos
      G              F
Gonna live this life forever
 Am 
Bailamos
G       F       E
Tikiero Momonio Tikiero!

Solo:   Am      Dm       Am       Dm 

Am           Dm 
 Tonight I'm yours
G              F             Am
We can make it happen I'm so sure.
Am              Dm 
Now I'm letting go
G                          F          E
There is something I think you should know.
          Am                                        
I wont be leaving your side
	    F
We're gonna dance through the night
C       G             E 
I wanna reach for the stars.

Am 
Bailamos
        G               F
Let the rhythm take you over,
Am 
Bailamos
G        F
Tikiero, Momomio,
Am 
Bailamos
      G              F
Gonna live this life forever
Am 
Bailamos
G       F       E
Tikiero Momonio Tikiero!

Am        G          F 
Wo oh oh, tonight we dance.
Am             G   F 
Wo oh oh, like no  
Am           G        F         Am 
Wo oh oh, if you will stay with me.
E 
Takiero, bailamos.

Solo:  Am   G   F      x4 

Am 
Bailamos
        G               F
Let the rhythm take you over,
Am 
Bailamos
G        F
Tikiero, Momomio,
Am 
Bailamos
      G              F
Gonna live this life forever
Am 
Bailamos
G       F       E
Tikiero Momonio Tikiero!
Am 
Bailamos
        G               F
Let the rhythm take you over,
Am 
Bailamos
G        F
Tikiero, Momomio,
Am 
Bailamos
      G              F
Gonna live this life forever
 Am 
Bailamos
G       F       E
Tikiero Momonio Tikiero!
Texto Columnas
Alterar tom ½ tono ½ tono
sintonización acordes esconder tabs más »
1.044 exhibiciónes

Comentarios 0

Consigo tocarSin embargo, para tocar esta canción. ¡Sé el primero!
    Aún no puedo reproducir
    1. Sweet Child O' Mine - Guns N' Roses mantiene 3.190 exhibiciones
    2. All Of Me - John Legend mantiene 2.574 exhibiciones
    3. Wonderwall - Oasis mantiene 2.248 exhibiciones
    4. Nothing Else Matters - Metallica mantiene 2.063 exhibiciones
    5. I'm Yours - Jason Mraz mantiene 1.663 exhibiciones
    6. Stairway To Heaven - Led Zeppelin mantiene 1.578 exhibiciones
    7. More Than Words - Extreme mantiene 1.512 exhibiciones
    8. When I Was Your Man - Bruno Mars mantiene 1.499 exhibiciones
    9. Rude - Magic! mantiene 1.399 exhibiciones
    10. The Scientist - Coldplay mantiene 1.353 exhibiciones
    1. The Beatles- mantiene 22.135 exhibiciones
    2. Guns N' Roses- mantiene 8.024 exhibiciones
    3. Metallica- mantiene 7.295 exhibiciones
    4. One Direction- mantiene 5.509 exhibiciones
    5. Coldplay- mantiene 5.376 exhibiciones
    6. Nirvana- mantiene 5.354 exhibiciones
    7. Red Hot Chili Peppers- mantiene 4.923 exhibiciones
    8. Arctic Monkeys- mantiene 4.852 exhibiciones
    9. Oasis- mantiene 4.832 exhibiciones
    10. Bruno Mars- mantiene 4.335 exhibiciones
    Exhibir acordes »

    Acordes y tabs

    Aprenda

    Studio Sol

    ©1996 - 2014 Cifra Club · el primero, mayor y más accedido del Brasil · 342 mil músicas · 6.4 millones de personas registradas

    publicidad
    cerrar