Eu Que Não Amo Você

Engenheiros do Hawaii

 Engenheiros do Hawaii
Tono: G
		
Em
Eu que não fumo queria um cigarro
C
Eu que não amo você
 G
Envelheci dez anos ou mais
          D     D#º
Neste ultimo mês
Em
Eu que não bebo pedi um conhaque
C
Pra enfrentar o inverno
G                                                D
Que entra pela porta que você deixou aberta ao sair

Am
Senti saudade
G
Vontade de voltar
Am
Fazer a coisa certa
G
Aqui é o meu lugar
Em
Mas sabe como é
A79
Dificil encontrar
Am
A palavra certa
C                  G
A hora certa de voltar
Am
A porta aberta
C                  D
A hora certa de chegar

Em
Eu que não fumo queria um cigarro
C
Eu que não amo você
G
Envelheci dez anos ou mais
               D     D#º
Neste ultimos mês
Em
Eu que não bebo pedi um conhaque
C
Pra enfrentar o inverno
G                                              D
Que entra pela porta que você deixou aberta ao sair

Am
O certo é que eu dancei
               G
Sem querer dançar
Am
E agora ja nem sei
                G
Qual é o meu lugar
Em
Dia e noite sem parar
                     A79
Eu procurei sem encontrar
Am            C
A palavra certa
                    G
A hora certa de voltar
Am            C
A porta aberta
                   D
A hora certa de chegar

Em
Eu que não fumo queria um cigarro
C
Eu que não amo você
G
Envelheci dez anos ou mais
            D    D#º
Neste último mês
Em
Eu que não bebo pedi um conhaque
C
Pra enfrentar o inverno
G                                                 D  D#º
Que entra pela porta que você deixou aberta ao sair

Solo -Base (Em / C / G / D / D#º / Em / C / G / D / D#º)

parte  1

Solo de Piano (arranjo de violão)


E|-7-----------------|-7-----------------|-7-----------------/
B|-8----10--8--------|-8----10--8--------|-8----10--8--------/
G|-9--------------9--|-9--------------9--|-9--------------7--/
D|-9-----------------|-9-----------------|-9-----------------/
A|-------------------|-------------------|-------------------/
E|-------------------|-------------------|-------------------/



E|------------------------------------------------------------------/
B|-10----------10-----------10--------------------------------------/
G|----11----11----11-----11----11-----------14----11----------------/
D|-------12----------12-----------13---16-------------13---16-------/
A|------------------------------------------------------------------/
E|------------------------------------------------------------------/


Solo violão


E|------------------|--------------------|------------------------------/
B|-----7--8--10--8--|-----7--8--10--8----|------------------------------/
G|-----7--9--11--9--|-----7--9--11--9----|------4--5--7--5--4-----------/
D|------------------|--------------------|------5--7--9--7--5-----------/
A|------------------|--------------------|------------------------------/
E|------------------|--------------------|------------------------------/



E|-----------------------0---------/
B|---------------------------0-----/
G|--2----------2-------------------/
D|--4-----0----1-----1-------------/
A|---------------------------------/
E|---------------------------------/


Parte 2

Solo de Piano


E|-7-----------------|-7-----------------|-7-----------------/
B|-8----10--8--------|-8----10--8--------|-8----10--8--------/
G|-9--------------9--|-9--------------9--|-9--------------7--/
D|-9-----------------|-9-----------------|-9-----------------/
A|-------------------|-------------------|-------------------/
E|-------------------|-------------------|-------------------/



E|------------------------------------------------------------------/
B|-10----------10-----------10--------------------------------------/
G|----11----11----11-----11----11-----------14----11----------------/
D|-------12----------12-----------13---16-------------13---16-------/
A|------------------------------------------------------------------/
E|------------------------------------------------------------------/


Solo violão


E|--------0------------------------------|---------------------------/
B|--------0------------------------------|---------------1-1/3----3--/
G|--------0---------------------------0--|----------0-2--------------/
D|--------2------------------5--7~~~-----|--2--0-2-------------------/
A|--------2------------5--7--------------|---------------------------/
E|---0----0------5--7--------------------|---------------------------/



E|--------------------------------------|--------------------7-10-8-7--------------/
B|-----5p3-----------------3--5/8-8-8---|--8/7-------------8----------10--8--------/
G|----------5-4--------4-5--------------|------9--7-----9-------------------8---9--/
D|---------------0----------------------|------------------------------------------/
A|--------------------------------------|------------------------------------------/
E|--------------------------------------|------------------------------------------/


Em
Eu que não fumo queria um cigarro
C
Eu que não amo você
G
Envelheci dez anos ou mais
            D    D#º
Neste ultimos mês
Em
Eu que não bebo pedi um conhaque
C
Pra enfrentar o inverno
G                                                 D  D#º Em
Que entra pela porta que você deixou aberta ao sair

Comentarios 0

Composición: Humberto Gessinger
Ese no és el compositor? Avisenos.
Contribución: Alan
Exhibir acordes »
publicidad
cerrar