I Need Some Sleep

Eels

 Eels
Tono: C
		

    Am           Em           F           C
E|----------------------------------------------------|
B|-1-----1------0------------1-----------1-----1------|
G|-----2------------0------------2-----------0--------|
D|---2------------2---2--------3---3-------2----------|
A|-0------------2------------3-----------3------------|
E|----------------------------------------------------|



    Am           Em           F           G
E|----------------------------------------------------|
B|-1-----1------0------------1-----------3-----3------|
G|-----2------------0------------2-----------0--------|
D|---2------------2---2--------3---3-------0----------|
A|-0------------2------------3------------------------|
E|---------------------------------------3------------|



Am          Em        F                  C
I need some sleep You can't go home like this
Am             Em        F                    G
I try counting sheep But there's one I always miss
Am       Em       F               C
Everyone says I'm getting down to low
Am       Em         F                 C
Everyone says, "You just gotta let it go"
    F                 C
You just gotta let it go
    F                 C
You just gotta let it go
Am          Em            F                 C
I need some sleep time to put the old horse down
Am         Em           F                    G
I'm in too deep and the wheels keep spinning round
Am       Em       F               C
Everyone says I'm getting down to low
Am       Em         F                 C
Everyone says, "You just gotta let it go"
F                     C
You just gotta let it go
F                     C
You just gotta let it go

Comentarios 1

Composición: Eels
Ese no és el compositor? Avisenos.
Contribución: Kika.:) Correcciónes: maassi.fe »
Exhibir acordes »
publicidad
cerrar