Tono: A
		
Inro- Eb  e---6---|

          b---8---|
          g---8---|
          d---8---|
          a---6---|
          e---6---|

    the beat for the intro is
          ba baaaaa ba baaaaaa ba baaaaaaa ba baaaaaaa ba ba ba
verse


 high e-----17-17-17-17-15-13-15--15-15--17-17



 then on d--2-3-2-3-2-3 then Eb Eb Eb last one held (intro note)


 then do the high e part again
  this time end by holding the 13th fret right after the last 17th and then
  the chorus

chorus

   Gm7(G#9), C, A, Dm7(D#9)


 e---Gm7---3---C---3---A--5--Dm7--5-|
 b---------3-------5------5-------6-|
 g---------3-------5------6-------5-|
 d---------3-------5------7-------7-|
 a---------5-------3------7-------5-|
 e---------3-------3------5-------5-|


solo section

        Bb7    Am7    Gm7    Am7    Dm7

 e------6-------5------3------5------5---|
 b------6-------5------3------5------6---|
 g------7-------5------3------5------5---|
 d------6-------5------3------5------7---|
 a------8-------7------5------7------5---|
 e------6-------5------3------5------5---|

      ba       ba     ba     babaaa  baaaaaa


tabbed by Peta! Hyde

Comentarios 1

  • Meral Meral: Publicado en 13/06/2014 21:25


    Do you remember
    The 21st night of september
    Love was changing the minds of pretenders

Composición: Kurt Weill / Maxwell Anderson
Ese no és el compositor? Avisenos.
Exhibir acordes »
publicidad
cerrar