Vou Confiar

Dunga

 Dunga
Tono: C
		
Tom: C

Intro:  G  Am7 Bm  Am7 Em(#5)



E|---------------------------------------------------------------------------
B|---------15—13~-12---------15-13~-12--------15-13~-12—--------------------
G|-----12~-----------12~-12-------------12~-12------------12~-12/14-12-------
D|---12-----------------------------------------------------------------12---
A|---------------------------------------------------------------------------
E|---------------------------------------------------------------------------


   G
O sol vai se pondo
         Am7
Mais um dia vai chegando ao fim
    Bm                       Am7	           Em(#5)
A chama da esperança ainda queima no coração
     G                            Am7
A estrada é muito longa, mas a vida não acabou
    Bm                                C9  D/F# Em(#5)
Eu sei, meus olhos não enxergam a vitória,
      D
mas existe um Deus de amor
         C9                  F#7(b13)
que me ensina a não perder a fé
   Am                C7M
E mesmo se a fé é pequena
   C9           D    F#7(b13)
Milagres acontecerão
        G                Am7
Vou confiar no Deus da Aliança
                    Bm                           C  D/F#
que abriu o Mar Vermelho quando não havia mais saída
         G                          Am7                Bm
Vou confiar no Deus que nos deu seu Filho para nos salvar
                      C9    F#7(b13)
e nos deu a aliança eterna
         Em  Dm Em Dm
Vou confiar


E|--------------------------------------------7-8-7-8-7-8-7-8--------
B|---------8—6~-5-------8-6~-5-----8-6~-5—--------------------------
G|-----5~----------5~-5--------5~-5---------5------------------------
D|---5---------------------------------------------------------------
A|-------------------------------------------------------------------
E|-------------------------------------------------------------------



   C
O sol vai se pondo
        Dm7
Mais um dia vai chegando ao fim
   Em                        Dm7           F6
A chama da esperança ainda queima no coração
     C                          Dm7
A estrada é muito longa, mas a vida não acabou
    Em                             Dm7   Bm(b13)
Eu sei, meus olhos não enxergam a vitória,
      G/B
mas existe um Deus de amor
         Am
que me ensina a não perder a fé
  Dm                 Am
E mesmo se a fé é pequena
   F              G
Milagres acontecerão
        C                Dm
Vou confiar no Deus da Aliança
                    Am                           F
que abriu o Mar Vermelho quando não havia mais saída
         C                          Dm                 Am
Vou confiar no Deus que nos deu seu Filho para nos salvar
                      F
e nos deu a aliança eterna
         C
Vou confiar
31 exhibiciónes

Comentarios 1

  • Rodrigol Rodrigol: Publicado en 09/10/2014 13:53

    Grande música!!

Composición: Samuel Ferreira
Ese no és el compositor? Avisenos.
Contribución: Vivian Suemy Correcciónes: diegosilva14 , kadun e mais 3 »
Exhibir acordes »
publicidad
cerrar