No Pares

Dulce María

 Dulce María
Tono: E
		

E|--4-----4-----4--2-----2-----2--0-----0-----0------|
B|-----------------------------------------------4---|
G|---------------------------------------------------|  (2x)
D|--2--2-----2-----2--2-----2-----2--2-----2-----2---|
A|---------------------------------------------------|
E|---------------------------------------------------|



Solo: E  B5  A5  B5 (2x)

C#m7    A5        E                   B5
Nadie puede pisotear tu libertad
C#m7    A5          E                      B5
Grita fuerte por si te quieren callar
C#m7          A5
Nadie puede detenerte
E                  B5
Si tu tienes fé
C#m7            A5
No te quedes con tu nombre
E                        B5
Escrito en la pared...
              A5
En la pared.
C#m7    A5        E                 B5
Si censuran tus ideas ten valor
C#m7   A5              E                    B5
No te rindas nunca siempre alça la voz
C#m7             A5              E                    B5
Lucha fuerte, sin medida, no dejes de creer
C#m7            A5                   E                     B5
No te quedes con tu nombre escrito en la pared
            A5
En la pared...

Refrão 2x:
E             B5          F#m
No pares no pares no
             A5
No pares nunca de soñar
E             B5         F#m
No pares no pares no
             A5
No pares nunca de soñar
C#m7        B5            A5                     E
No tengas miedo a volar  Vive tu vidaaaaa... (volta lá pra cima só na 1° vez)
              C#m7
Vive tu vidaaaaa...

E|---0---0---0---0---0---0---0---0---0---0---0---0---0---0---0---0-----| (2x)
B|---0---0---0---0---0---0---0---0---0---0---0---0---0---0---0---0-----|
G|--13--13--13--13--11--11--11--11---9---9---9---9---8---8---8---8-----| 
D|--14--14--14--14---9---9---9---9---9---9---9---9---9---9---9---9-----|
A|--11--11--11--11---9---9---9---9---7---7---7---7---6---6---6---6-----|
E|---------------------------------------------------------------------|



Acompanhamento: E  B5  A5  B5 (2x)

C#m7     A5               E              B5
No construyas muros en tu corazón
C#m7    A5                E                B5
Lo que haga siempre hazla por amor
C#m7        A5
Poen las alas contra el viento
E                           B5
No hay nada que perder
C#m7            A5
No te quedes con tu nombre
E                       B5
Escrito en la pared...
A5
noooooooooo

E             B5         F#m
No pares no pares no
               A5
No pares nunca de soñar
E             B5          F#m
No pares no pares no
               A5
No pares nunca de soñar
C#m7        B5            A5                    E
No tengas miedo a volar  Vive tu vidaaaa (volta lá em cima só na 1° vez)

                 E    B5          A5
Vive tu vida...Hôôôôôô, hêêêê...
B5                          E
No pares nunca de soñar
   B5               A5     B5
Ôôôôô  ôôôô... Hê,hê,hêêêê
G#m      F#m        E
Vive tu vidaaaaaaaa...
495 exhibiciónes

Comentarios 4

  • Silvieni Silvieni: Publicado en 25/10/2013 09:47

    Te adoroo d+++ Dulce e achei suas musicas mt legais... Curto rebelde todo dia so pra te ver bjs tee adoro ad

  • moischneider moischneider: Publicado en 02/02/2012 21:14

    Corrigi a música. Essa é a versão que foi tocada em RBD Live in Hollywood

  • amandapm amandapm: Publicado en 26/10/2011 15:59

    cade o resto da cifra dessa música?

  • amandapm amandapm: Publicado en 26/10/2011 15:58

    cade o resto da cifra e letra dessa música?

Composición: Linda Thomas e Carlos Lara
Ese no és el compositor? Avisenos.
Contribución: itcaty Correcciónes: moischneider »
Exhibir acordes »
publicidad
cerrar