Breaking The Chains

Dokken

 Dokken
Tono: G
		
riff dos versos:faça sempre double stops de uma nota a outra 
palm mute depois do double stop
obs depois da transição 1 repita o riff partir do D5 


e--------------------------------------------------------|
b--------------------------------------------------------|
g-9-9\5-5-5-5-5---5-5\3-3-3-3-3--3-3/5-5-5-5-5---5-5/7---|
d-9-9\7-7-7-7-7---7-7\5-5-5-5-5--5-5/7-7-7-7-7---7-7/9---|
a-7-7\7-7-7-7-7---7-7\5-5-5-5-5--5-5/7-7-7-7-7---7-7/9---|
e--------------------------------------------------------|



riff 2

e---------------------------------------------------
b-5/7-7-7-7---7-7-7--7-7-7--7/8-8-8-8--8-8-8--8-8-8-
g---------------------------------------------------
d---------------------------------------------------
a---------------------------------------------------
e---------------------------------------------------



e-5--5-5-5--5-5-5--5-5-5-5/7-7-7-12-12-18v-
b---------------------------------------
g---------------------------------------
d---------------------------------------
a---------------------------------------
e---------------------------------------



transição 1

e-----------------------------
b-----------------------------
g-------5-5---------------------
d-------7-7---------------------
a-------7-7---------------------
e--3-2--------------------------


transição 2

e-----------------------------
b-----------------------------
g-----------------------------
d-2-0-------0--------------------
a-----3-2-0----------------------
e-----------------------------


lick 

e-----------------------------
b-----------------------------
g--4-2-4----------------------
d--------0---------------------
a-----------------------------
e-----------------------------


lick 2

e-----------------------------
b-----------------------------
g-4-2-4--------------------------
d-------4----------------------
a-------4----------------------
e-------2----------------------



lick 3

e-----------------------------
b-----------------------------
g------------------------
d--2-0-2------------------------
a-----------------------------
e-----------------------------


sequência 1

e--3-2--------------------------
b------3-1----------------------
g------------------------
d--------------------------
a-----------------------------
e-----------------------------




solo : no clipe temos a parte mais "farofenta" , em que o George Lynch liberta 
os prisioneiros com as ondas sonoras de sua guitarra. Muito tosco!
Ele faz o que a música determina ao pé da letra,quebra as correntes - > Breaking the chains!
onde tem e--24\22 pode ser substituído por b--17/15 pra guitarras de poucos trastes.


e---------------------------------|-------------|--------------------------|
b---------------------------------|-------10-10-|-12-10/12-10/12-----------|
g---12b-12-11-12-11-12b--11-9-----|-11-12-------|----------------12-11-12-9|
d-9----------------------------10-|-------------|--------------------------|
a---------------------------------|-------------|--------------------------|
e---------------------------------|-------------|--------------------------|



e----15b-15-14-15-14-15b-14--------|----------------------|
b---------------------------17-13--|-------10-12----------|
g-16-------------------------------|-11-12-------12-11--9-|
d----------------------------------|----------------------|
a----------------------------------|----------------------|
e----------------------------------|----------------------|



e--19b-19-17-19-17-19b\17-----------------|--22b/0----17-----------
b-------------------------19-20-19--------|--------20----20-19--17-
g-----------------------------------19-17-|------------------------
d-----------------------------------------|------------------------
a-----------------------------------------|------------------------
e-----------------------------------------|------------------------



e-24b-24\22------|--22-20-19-17-17/19-17/19----15/17-15/17----|
b----------------|--------------------------20-------------17-|
g-----------4-2-4|--------------------------------------------|
d----------------|--------------------------------------------|
a----------------|--------------------------------------------|
e----------------|--------------------------------------------|



Como fazer:

pra começar, riff dos versos 2x, sendo que na segunda,o riff 2 vai junto 

riff dos versos 2x
Sit there thinking
In your room
You feel the pressure
You're going crazy too
The walls around you
Closing in
You need a change

transição 1

riff dos versos 2x
Claustophobic
Feeling scared
You need somebody
But no one seems to care
A one way ticket
A change of pace
You've had enough

transição 2 devagar
Can't take no more



refrão 1:

G5
Breaking the chains around you  lick
C5
Nobody else can bind you lick 2
G5
Take a good look around you lick
B5  C5 D5     E5          
N o w  you're breaking the chains

riff dos versos misturado com riff 2

riff dos versos 2x
Got this letter
Came today
From my baby
Who left me yesterday
Said she loves me
She'll come back
She wants to try

transição 1

riff dos versos 2x
I won't let her
She'll be upset
I know it's better
Then somethin' I'll regret
She's been dishonest
And insincere
I lost my mind
transição 2 devagar
Twenty times a year

refrão 2:
G5
Breaking the chains around me lick
C5                        
Nobody else can bind me lick 2
G5
Take a good look around me lick
B5 C5  D5  E5           
N o w  I'm breaking the chains

E5  D5  B5            D5  E5
Ah  ah  ahhhh...   Ah ah  ahhhhh....     

sequência 1       B5   D5  E5   
Ah ah ahhh...     Ah   ah  ahhhh.....


solo

riff dos versos 2x
Woke up today
I'm alone
I look around
But baby you were gone
But I don't mind
And I don't worry
I will survive

transição 1

riff dos versos 2x
I'm alone
Now that you're gone
Don't need nobody
To hold or tie me down
I broke the chains
So let me be
transição 2 devagar
I've gotta be free

G5
Breaking the chains around me lick
C5                        
Nobody else can bind me lick 2
G5
Take a good look around me lick
B5 C5  D5  E5           
N o w  I'm breaking the chains lick 3
G5
Breaking the chains around me lick
C5                        
Nobody else can bind me lick 2
G5
Take a good look around me lick
B5 C5  D5  E5           
N o w  I'm breaking the chains
Texto Columnas
Alterar tom ½ tono ½ tono
sintonización acordes esconder tabs más »

Comentarios 2

Composición: B. Gibb / B. Leza / Christopher Stevens / Don Dokken / George Lynch / Geraldo Babão / Kennedy
Ese no és el compositor? Avisenos.
Contribución: Diagom
  1. Sweet Child O' Mine - Guns N' Roses mantiene 2.946 exhibiciones
  2. Wonderwall - Oasis mantiene 2.146 exhibiciones
  3. All Of Me - John Legend mantiene 2.095 exhibiciones
  4. Nothing Else Matters - Metallica mantiene 1.626 exhibiciones
  5. Stairway To Heaven - Led Zeppelin mantiene 1.492 exhibiciones
  6. When I Was Your Man - Bruno Mars mantiene 1.476 exhibiciones
  7. I'm Yours - Jason Mraz mantiene 1.404 exhibiciones
  8. More Than Words - Extreme mantiene 1.355 exhibiciones
  9. The Scientist - Coldplay mantiene 1.350 exhibiciones
  10. Hey Jude - The Beatles mantiene 1.278 exhibiciones
  1. The Beatles- mantiene 21.434 exhibiciones
  2. Guns N' Roses- mantiene 7.348 exhibiciones
  3. Metallica- mantiene 6.704 exhibiciones
  4. Coldplay- mantiene 4.971 exhibiciones
  5. Red Hot Chili Peppers- mantiene 4.791 exhibiciones
  6. Nirvana- mantiene 4.688 exhibiciones
  7. Bruno Mars- mantiene 4.684 exhibiciones
  8. Oasis- mantiene 4.598 exhibiciones
  9. Soda Stereo- mantiene 3.711 exhibiciones
  10. One Direction- mantiene 3.667 exhibiciones
Exhibir acordes »

Acordes y tabs

Aprenda

Studio Sol

©1996 - 2014 Cifra Club · el primero, mayor y más accedido del Brasil · 339 mil músicas · 6.3 millones de personas registradas

publicidad
cerrar