Tono: C
		
Intro: F Bb Dm7 Csus C

Solo 1

E|5-5-5|5-5-5|5-5-5|5-5-5|-----|
B|6-6-6|8-8-8|5-5-5|6-6-6|-----|
G|5-5-5|5-5-5|5-5-5|5-5-5|5-5-5| 5x
D|5-5-5|5-5-5|5-5-5|5-5-5|3-3-3|
A|-----|-----|-----|-----|3-3-3|
E|-----|-----|-----|-----|-----|



E|3-3-3-3-3-3-3-3|3-3-3-3-3-3-3-3|3|
B|6-6-6-6-6-6-6-6|5-5-5-5-5-5-5-5|6|
G|5-5-5-5-5-5-5-5|5-5-5-5-5-5-5-5|5|
D|3-3-3-3-3-3-3-3|3-3-3-3-3-3-3-3|3|
A|3-3-3-3-3-3-3-3|3-3-3-3-3-3-3-3|3|
E|---------------|---------------|-|



F                           Dm
  Nos reunimos aqui para adorar o nosso Rei
F/A                        Bb
  Para celebrar sua fidelidade

Solo 2

E|1-1-1-1|1-1-1-1|1-1-1-1|1-1-1-1|
B|6-6-6-6|5-5-5-5|3-3-3-3|1-1-1-1| 3x
G|-------|-------|-------|-------|


Dm                                 C
  Ele prometeu que entre nós sempre estará
Bb                    C
  Vamos declarar Hosana!


Solo 3

             F                         F/Bb
E|3-3-3|3----|3-----3|-3|  E|3-3-3|3----|3-----3|-3|
B|6-6-6|--6--|--6----|-6|  B|6-6-6|--6--|--6----|-6|
G|5-5-5|----5|----5--|-5|  G|5-5-5|----5|----5--|-5|
D|3-3-3|-----|-------|-3|  D|3-3-3|-----|-------|-3|
A|3-3-3|-----|-------|-3|  A|3-3-3|-----|-------|-3|
E|-----|-----|-------|--|  E|-----|-----|-------|--|



              Gm7                                C
E|8--8--8-|8------|8-------8|-8|  E|10-10-10|12------|13-------13|
B|11-11-11|--11---|--11-----|11|  B|11-11-11|---11---|---11------|
G|10-10-10|-----10|-----10--|10|  G|10-10-10|------10|------10---|
D|8--8--8-|-------|---------|-8|  D|10-10-10|--------|-----------|
A|8--8--8-|-------|---------|-8|  A|--------|--------|-----------|
E|--------|-------|---------|--|  E|--------|--------|-----------|





     F     F/Bb    Gm7     Csus
  Hosana, Hosana, Hosana, Hosana
     F     F/Bb    Gm7     Csus
  Hosana, Hosana, Hosana, Hosana

Reintro: F Bb Dm7 Csus C

F                          Dm
  Nos reunimos aqui para adorar o nosso Rei
F/A                        Bb
  Para celebrar sua fidelidade *Solo 2*
Dm                                 C
  Ele prometeu que entre nós sempre estará
Bb                    C
  Vamos declarar Hosana!

     F     F/Bb    Gm7     Csus
  Hosana, Hosana, Hosana, Hosana
     F     F/Bb    Gm7     Csus
  Hosana, Hosana, Hosana, Hosana

Solo: Bb    C    Dm7    C/E    Bb    Csus (2X)


Solo 4


E|---------------------------------------------------------------------------------|
B|11-------13----11/13--13--13/15\13----13--15----15--15/17\15----15--18----15--17~|
G|------10----10---------------------12--------14--------------14--------14--------|
D|---12----------------------------------------------------------------------------|
A|---------------------------------------------------------------------------------|
E|---------------------------------------------------------------------------------|



|------------------------------------------------------8-----10-----12-----13-----15-----------|
|13----10--13--------11--11/13\11------------------------11b----13b----15b----16b----18b-(20t)-|
|---10-----------10--10--10/12\10---15-14-12-10-12-10------------------------------------------|
|-------------12--------------------15-14-12-10-12-10------------------------------------------|
|----------------------------------------------------------------------------------------------|
|----------------------------------------------------------------------------------------------|



|----------------------------------------|
|18-18-18--17-17-17--15-15-15--10-10-10--|
|----------------------------------------|
|----------------------------------------|
|----------------------------------------|
|----------------------------------------|


Solo 5


E|---------------------------------------------|
B|11----11----10----11----13----13----10----11~|
G|---10----10----10----10----10----10----10----|
D|---------------------------------------------|
A|---------------------------------------------|
E|---------------------------------------------|





Solo 5

     Bb       C     Dm7   Am7
  És bem vindo aqui Senhor
     Bb   C           Solo 6:  G  G  F  G  G  F  G  G  F  G  G  F  G
  Glorioso Salvador!

Solo 6:


E|-------------------------------|
B|8-8-6--8-8-6--8-8-6--8-8-6--8~-|
G|7-7-7--7-7-7--7-7-7--7-7-7--7~-|
D|-------------------------------|
A|-------------------------------|
E|-------------------------------|


Solo 5

     Bb      C      Dm7   Am7
  És bem vindo aqui Senhor
     Bb  C     Dsus   D
  Glorioso Salvador!     (1x solo 7) (2x solo 8)

Solo 7


B|18-18-18--17-17-17--15-15-15--10-10-10-|
G|14-14-14--14-14-14--14-14-14--9--9--9--|


Solo 8

B|15-15-15-15-15-15--15-15-15-15-15-15|
G|12-12-12-12-12-12--11-11-11-11-11-11|



[É tocado o solo 3, só que um tom acima]
    G      G/C      Am7    Dsus
  Hosana, Hosana, Hosana, Hosana
    G      G/C      Am7    Dsus
  Hosana, Hosana, Hosana, Hosana

     C     D     Em7   Bm7
  És bem vindo aqui, Senhor
     C     D          Solo 6 um tom acima:  A  A  G  A  A  G  A  A  G  A  A  G  A
  Glorioso Salvador!

     C     D     Em7   Bm7
  És bem vindo aqui Senhor
     C     D
  Glorioso Salvador!

  Intro (solo 1) um tom acima: G  C  Em7  Dsus  D

                G            C
  Cantamos de alegria uô uô uô uô uô uô
                Em7          C        (Stop)
  Dançamos de alegria uô uô uô uô uô uô
                A            D
  Pulamos de alegria uô uô uô uô uô uô
                F#m          D
  Gritamos de alegria uô uô uô uô uô uô

    A      F#m7            D      E
  Festa, alegria, é uma dança de celebração
    F#m7    E    Bm7  D        Esus   E
  Ao único digno, Jesus, seu nome é Jesus!
    A      F#m7            D      E
  Festa, alegria, é um povo que se reúne aqui
    F#m7    E    Bm7  D        Esus   E
  Diante do Trono do Rei, do Rei dos reis

               A             D
  Cantamos de alegria uô uô uô uô uô uô
               F#m7          D
  Dançamos de alegria uô uô uô uô uô uô
               A             D
  Pulamos de alegria uô uô uô uô uô uô
               F#m7          D
  Gritamos de alegria uô uô uô uô uô uô

 Aqui o refrão entra em ritimo nordestino:


    A  C#m7 D   E
E|-0-|-9-|-5-|-7-|
B|-2-|-9-|-3-|-5-|
G|-2-|-9-|-2-|-4-|
D|-2-|-9-|-0-|-0-|



    A     C#m7      D       E
  Cantamos de alegria uô uô uô uô uô uô
    A     C#m7      D       E
  Dançamos de alegria uô uô uô uô uô uô
    A     C#m7      D       E
  Pulamos de alegria uô uô uô uô uô uô
    A     C#m7      D       E
  Gritamos de alegria uô uô uô uô uô uô


              F#m7     E    D
  Seu nome é Jesus
              F#m7     E    D
  Seu nome é Jesus
              F#m7     E    D
  Seu nome é Jesus
              F#m7     E    D
  Seu nome é Jesus
Texto Columnas
Alterar tom ½ tono ½ tono
sintonización acordes esconder tabs más »

Comentarios 2

  • Weslley Weslley: Publicado en 22/03/2013 16:00

    o guitarrista que faz o solo 4 que a conversão da musica não usa a corda E(mizinha) no solo ele só usa as cordas B,G,D. o resto ta certo!!!

  • mkoficial mkoficial: Publicado en 08/04/2012 11:41

    massa essa musica até o solo eu peguei todo ficou igualzim!

Composición: Ana Paula Valadão
Ese no és el compositor? Avisenos.
Contribución: Xande3012 Correcciónes: eduschade »
  1. Sweet Child O' Mine - Guns N' Roses mantiene 2.673 exhibiciones
  2. Wonderwall - Oasis mantiene 1.980 exhibiciones
  3. All Of Me - John Legend mantiene 1.737 exhibiciones
  4. Nothing Else Matters - Metallica mantiene 1.555 exhibiciones
  5. When I Was Your Man - Bruno Mars mantiene 1.540 exhibiciones
  6. Stairway To Heaven - Led Zeppelin mantiene 1.421 exhibiciones
  7. More Than Words - Extreme mantiene 1.369 exhibiciones
  8. Hey Jude - The Beatles mantiene 1.353 exhibiciones
  9. The Scientist - Coldplay mantiene 1.291 exhibiciones
  10. Wake Me Up - Avicii mantiene 1.086 exhibiciones
  1. The Beatles- mantiene 21.459 exhibiciones
  2. Guns N' Roses- mantiene 7.149 exhibiciones
  3. Metallica- mantiene 6.753 exhibiciones
  4. Red Hot Chili Peppers- mantiene 5.343 exhibiciones
  5. Nirvana- mantiene 5.143 exhibiciones
  6. Coldplay- mantiene 5.072 exhibiciones
  7. One Direction- mantiene 4.604 exhibiciones
  8. Bruno Mars- mantiene 4.512 exhibiciones
  9. Oasis- mantiene 4.404 exhibiciones
  10. Green Day- mantiene 3.497 exhibiciones
Exhibir acordes »

Acordes y tabs

Aprenda

Studio Sol

©1996 - 2014 Cifra Club · el primero, mayor y más accedido del Brasil · 336 mil músicas · 6.2 millones de personas registradas

publicidad
cerrar