Enquanto Eu Viver

Diante do Trono

 Diante do Trono
Tono: B
		
Intro:


        B9                                G#m7            E9
E|----------------------------------------------------------------------------
B|--------------5-4--------------5-4-------------5-4-------------7-4----------
G|-----4-4-4-4-------4-4-4-6-4-6-----4-4---4---4------------------------------
D|---------------------------------------6---6-------6-6-4-6-4-6--------------
A|----------------------------------------------------------------------------
E|----------------------------------------------------------------------------


(Riff 1)

       B9
Cantarei Teus louvores pra Tua Glória

(Riff 2)

  G#m7                       E9
Enquanto eu viver, enquanto eu viver

(riff 1)
       B9
Contarei Tua história pra Tua Glória

(riff 2)                                (riff 3)

    G#m7                         E9        B9 F#
Enquanto eu viver, enquanto eu viver sou Teu

(riff 2)           (riff 3)        (riff 2)

C#m7      E9             B9 F#  C#m7     E9
Oh, oh, oh, oh, oh,  sou Teu    oh, oh, oh, oh, oh

  (riff 1)


E|------------------------------------------------------------------------
B|-------7---7---7---7--------7---7---7---7-------------------------------
G|---4-4---4---4---4---4--4-4---4---4---4---------------------------------
D|------------------------------------------------------------------------
A|------------------------------------------------------------------------
E|------------------------------------------------------------------------


(riff 2)


E|-------------------------------------------------------------------
B|-------------------------------------------------------------------
G|---6/8---------6/8-------------------------------------------------
D|-------11-9--------11-9--------------------------------------------
A|------------11----------11-----------------------------------------
E|-------------------------------------------------------------------


(riff 3)


E|------------------------------------------------------------------
B|-------7-----7---------7-----7------------------------------------
G|---4-4---4-4---4-4-3-3---3-3---3----------------------------------
D|------------------------------------------------------------------
A|------------------------------------------------------------------
E|------------------------------------------------------------------


 B9
Cada instante pra Tua glória
E9
Todo o tempo eu louvarei
G#m7	E9
Pela Tua graça eu viverei

(2° estrofe)

B9
As batidas do meu peito
E9
Querem conhecer-te mais
G#m7
Meu salvador, eu vou mostrar
               E9
Que és o Deus que satisfaz

(fazer esse riff durante a 2° estrofe)

(riff 4)


E|------------------------------------------------------------------
B|----12-11-9--------------12-11-9----------------------------------
G|------------11-9------11---------11-9------11---------------------
D|-----------------11-9-----------------11-9------------------------
A|------------------------------------------------------------------
E|------------------------------------------------------------------


B9
Cantarei Teus louvores pra Tua Glória
     G#m7	E9
Enquanto eu viver, enquanto eu viver
B9
Contarei Tua história pra Tua Glória
    G#m7	E9	   B9         F# (riff3)
Enquanto eu viver, enquanto eu viver sou Teu

(durante o refrão)


E|-------14-------14----14-------14-------14---------------------------------------------
B|-12-12----12-12----12----12-12----12-12----12--14/16-------------14/16-----------------
G|-----------------------------------------------------18-16-------------18-16-----------
D|-----------------------------------------------------------18-18-------------18--------
A|---------------------------------------------------------------------------------------
E|---------------------------------------------------------------------------------------


(riff 2)              (riff 3)    (riff 2)

 C#m7        E9	        B9 F#     C#m7 E9
Oh, oh, oh, oh,    sou Teu

B9
Cada instante pra Tua glória
E9
Todo o tempo eu louvarei
G#m7	E9
Pela Tua graça eu viverei

(riff 4)

B9
As batidas do meu peito
E9
Querem conhecer-te mais
G#m7
Meu salvador, eu vou mostrar
               E9
Que és o Deus que satisfaz

B9
Cantarei Teus louvores pra Tua Glória
     G#m7	E9
Enquanto eu viver, enquanto eu viver
B9
Contarei Tua história pra Tua Glória
    G#m7	E9	               B9
Enquanto eu viver, enquanto eu viver sou Teu

(durante o refrão)


E|-------14-------14----14-------14-------14---------------------------------------------
B|-12-12----12-12----12----12-12----12-12----12--14/16-------------14/16-----------------
G|-----------------------------------------------------18-16-------------18-16-----------
D|-----------------------------------------------------------18-18-------------18--------
A|---------------------------------------------------------------------------------------
E|---------------------------------------------------------------------------------------


E9
Vivo para Te louvar
G#m7
O Teu nome exaltar
B9	F#
Quero o Teu amor irradiar
E9
Vivo para Te louvar
G#m7
O Teu nome exaltar
B9	F#
Quero o Teu amor irradiar

B9
Cantarei Teus louvores pra Tua Glória
     G#m7	E9
Enquanto eu viver, enquanto eu viver
B9
Contarei Tua história pra Tua Glória
    G#m7	E9
Enquanto eu viver, enquanto eu viver

B9
Cantarei Teus louvores pra Tua Glória
     G#m7	E9
Enquanto eu viver, enquanto eu viver
B9
Contarei Tua história pra Tua Glória
    G#m7	E9	   B9
Enquanto eu viver, enquanto eu viver

(durante o refrão)


E|-------14-------14----14-------14-------14---------------------------------------------
B|-12-12----12-12----12----12-12----12-12----12--14/16-------------14/16-----------------
G|-----------------------------------------------------18-16-------------18-16-----------
D|-----------------------------------------------------------18-18-------------18--------
A|---------------------------------------------------------------------------------------
E|---------------------------------------------------------------------------------------


F#
sou Teu
 C#m7        E9	        B9 F#         C#m7           E9        B9
Oh, oh, oh, oh,    sou Teu            oh, oh, oh, oh, oh  Sou teu!

Final:


E|------------------------------------------------------------------
B|-------7-----7---------7-----7------------------------------------
G|---4-4---4-4---4-4-3-3---3-3---3--6/8---------6/8-----------------
D|--------------------------------------11-9--------11-9------------
A|-------------------------------------------11----------11---------
E|------------------------------------------------------------------



E|-------14-------14-------------14-------14---------------------------------------------
B|-12-12----12-12----12-12-11-11----11-11------11--14/16-------------14/16---------------
G|-------------------------------------------------------18-16-------------18-16---------
D|-------------------------------------------------------------18-18-------------18------
A|---------------------------------------------------------------------------------------
E|---------------------------------------------------------------------------------------

Comentarios 7

  • bie.el bie.el: Publicado en 05/07/2014 10:29

    rapaaaaaz, esses solos estão errados..

  • isaque.cardoso.528 isaque.cardoso.528: Publicado en 17/12/2013 17:15

    esses solos estão errados

  • xxbrendonxx xxbrendonxx: Publicado en 21/08/2013 12:16

    as tabs estão aí galera, quem quiser mais alguma música, só pedir :D

  • xxbrendonxx xxbrendonxx: Publicado en 20/08/2013 14:54

    vou tentar postar as tabs pra vocês... eu coloquei a de Vinho Novo, a última faixa dessa DVD

  • renatacristinasiqueira.lopes renatacristinasiqueira.lopes: Publicado en 04/03/2013 00:07

    Tem como fazer uma vídeo aula e por as tablaturasjQuery172043031361792236567_1362366253629?

  • claudio.matheus.96 claudio.matheus.96: Publicado en 07/02/2013 15:07

    nem sei

  • gabriellucaso gabriellucaso: Publicado en 08/12/2012 09:56

    qual é a batiida aí?

Composición: Ana Paula Valadão Bessa
Ese no és el compositor? Avisenos.
Contribución: danielfilipe Correcciónes: xxbrendonxx »
Exhibir acordes »
publicidad
cerrar