Perdas

CPM 22

 CPM 22
Tono: G
		
Intro: G Am7 G/B C9

      G             Am7             G/B            C9
E|--3--------------0--------------3--------------3----3--------------------|
B|--3------3-------1------1-------3------3-------3------3------------------|
G|--0--0-0---0-0---0--0-0---0-0---0--0-0---0-0---5--5----------------------|
D|--0--------------2--------------0--------------5-------------------------|
A|--2--------------0--------------2--------------3-------------------------|
E|--3----------------------------------------------------------------------|


 G                                  Am7
Temos que absorver as perdas que a vida nos impõe,
   G/B                                        C9
As perdas que às vezes nos derrubam e não há tempo pra depois
G                                          Am7
Vivo sempre de cabeça erguida e encontro forças dentro de mim
  G/B                                     C9
E agora restam aquelas velhas fotos do tempo que passou...

 C9          D           Em    D5
Já sei, não é a primeira vez...
 C9          D            Em   D5
Cansei, de perguntar por que...
C9            D4               G G/F#    Em
Só o que me deixa puto é não ter tido tempo pra dizer,
C9          D
Tudo pra você!

G               D/F#    Em7         D4            C9
Melhor deixar rolar, nada como um dia após o outro...
G               D/F#    Em7         D4            C9
Continuar, viver, tenho que me levantar de novo
      D                       G     Am    Bm    C9
e acreditar "Dias melhores virão"

Base do solo:  G  Am  Em  C9


E|-----3-------3------3-----3---3--5-3-----------------------------------------------------|
B|-2h3----2h3----2h3----2h3--2h3-------5-3--------------------------------------3-3--------|
G|-----------------------------------------5--0-2-0-2-4-4-----0-2-4-4-2-0-0-4-2------------|
D|-----------------------------------------------------------------------------------------|
A|-----------------------------------------------------------------------------------------|
E|-----------------------------------------------------------------------------------------|



E|-------------------------------------------------------------------------|
B|-------------------------------------------------------------------------|
G|-----------0-2/4-5p4-----------------------------------------------------|
D|-------0h2-----------5---5-----------------------------------------------|
A|-----2-----------------5-------------------------------------------------|
E|-2/3---------------------------------------------------------------------|



E|10-10-10-------10-10-10------10-10------8-8-8-7-7-7---------------------------------------|
B|---------8-8-8---------8-8-8-------8-8-------------8-8------------8-----------------------|
G|-------------------------------------------------------9--9-9-7-9-------------------------|
D|------------------------------------------------------------------------------------------|
A|------------------------------------------------------------------------------------------|
E|------------------------------------------------------------------------------------------|



E|10-10-10-------10-10-10------10-10-----10/12-12-12-10-10/7--7-7-8-7--------------------------|
B|---------8-8-8---------8-8-8-------8-8------------------------------10-8-10-8----------------|
G|---------------------------------------------------------------------------------------------|
D|---------------------------------------------------------------------------------------------|
A|---------------------------------------------------------------------------------------------|
E|---------------------------------------------------------------------------------------------|


 C9          D           Em    D4
Já sei, não é a primeira vez...
 C9          D            Em   D
Cansei, de perguntar por que...

C9            D               G        Em            C         D
E o que me faz feliz é ter certeza que você está bem, sinto você!

G               D/F#    Em7         D4            C9
Melhor deixar rolar, nada como um dia após o outro...
G               D/F#    Em7         D4            C9
Continuar, viver, temos que nos encontrar de novo
 D                          C
e acreditar "Dias melhores virão"
D
E acreditar...

G               D/F#    Em7         D4            C9
Melhor deixar rolar, nada como um dia após o outro...
D
Continuar, viver,
G               D/F#    Em7         D4            C9
E quando o sol nascer temos que recomeçar de novo
D                              G
e acreditar "Dias melhores virão."
D/F#       Em7        D4              C
Espere o melhor, prepare-se para o pior
D                  G
e aceite o que vier...
D/F#        Em7         D4             C
Espere o melhor, prepare-se para o pior
D4
e aceite o que
D9                 G
e aceite o que vier!!!
Texto Columnas
Alterar tom ½ tono ½ tono
sintonización acordes esconder tabs más »
42 exhibiciónes

Comentarios 8

  • Mateus Mateus: Publicado en 26/06/2014 21:51

    Obs: No último fraseado, em vez de D9 toca-se Am6..blzz..Abraçs!

  • seinaozin seinaozin: Publicado en 21/02/2014 23:18

    essa musica é foda msm

  • Charles Charles: Publicado en 26/12/2013 17:18

    Essa música é magnânima !

  • Lipinhopedrinho Lipinhopedrinho: Publicado en 13/12/2013 14:04

    Postei O Video Do Solo Aêw...

  • william william: Publicado en 09/11/2013 16:08

    Qual é o ritmo dessa musica ???

  • henriquecifra henriquecifra: Publicado en 22/09/2013 11:27

    e só pra constar, acho q é um G/B no lugar do Em, pois a intro se faz com esse acorde..

  • Alexandre Alexandre: Publicado en 20/09/2013 11:54

    Obg kra! ;) hehe

  • henriquecifra henriquecifra: Publicado en 20/09/2013 08:20

    Poooow, acordei animadão pra fazer minha cifra q eu ia tirar td de ouvido e já tem uma completinha aki :( rs parabéns ao feitor!

Composición: Sabe quien és el compositor? Envíenos. Contribución: Alexandre Correcciónes: Jorge , Alexandre e mais 3 »
  1. Sweet Child O' Mine - Guns N' Roses mantiene 2.746 exhibiciones
  2. Wonderwall - Oasis mantiene 1.998 exhibiciones
  3. When I Was Your Man - Bruno Mars mantiene 1.623 exhibiciones
  4. Nothing Else Matters - Metallica mantiene 1.570 exhibiciones
  5. Stairway To Heaven - Led Zeppelin mantiene 1.549 exhibiciones
  6. Hey Jude - The Beatles mantiene 1.442 exhibiciones
  7. All Of Me - John Legend mantiene 1.420 exhibiciones
  8. More Than Words - Extreme mantiene 1.346 exhibiciones
  9. The Scientist - Coldplay mantiene 1.313 exhibiciones
  10. Wake Me Up - Avicii mantiene 1.140 exhibiciones
  1. The Beatles- mantiene 20.830 exhibiciones
  2. Guns N' Roses- mantiene 6.945 exhibiciones
  3. Metallica- mantiene 6.797 exhibiciones
  4. Coldplay- mantiene 5.138 exhibiciones
  5. One Direction- mantiene 5.035 exhibiciones
  6. Red Hot Chili Peppers- mantiene 4.876 exhibiciones
  7. Nirvana- mantiene 4.876 exhibiciones
  8. Bruno Mars- mantiene 4.760 exhibiciones
  9. Oasis- mantiene 4.399 exhibiciones
  10. Green Day- mantiene 3.558 exhibiciones
Exhibir acordes »

Acordes y tabs

Aprenda

Studio Sol

©1996 - 2014 Cifra Club · el primero, mayor y más accedido del Brasil · 335 mil músicas · 6.1 millones de personas registradas

publicidad
cerrar