The World I Know

Collective Soul

 Collective Soul
Tono: D
		
Intro


   Bm          D/F#         G
e|----------------------------------------------------|
B|----------------------------------------------------|
G|-7-7-7-7-7--7-2-2---2-2-2/4-4-4-4-4--4-4-4---6-6-6/-| 
D|-0-0-0-0-0--0-0-0---0-0-0/0-0-0-0-0--0-0-0---0-0-0/-|
A|-x-x-x-x-x--x-x-x---x-x-x/x-x-x-x-x--x-x-x---x-x-x/-| 
E|-7-7-7-7-7--7-0-2---2-2-2/3-3-3-3-3--3-3-3---5-5-5/-| 

 
 (Pode-se substituir a Intro pelos acordes Bm D/F# G)


Riff 1 
 

e|---7------7--------7------7--------7---------8-7----| 
B|-----10--------------10--------------8------------8-| 
G|-7------9--------7------9--------7-----7------------| 
D|----------------------------------------------------|
A|----------------------------------------------------|
E|----------------------------------------------------|



Riff 2


e|----------------------------------------------------| 
B|---------------------10------10h12---12---12---10---| 
G|-9h11------11---11----------------------------------| 
D|------12-9----9----9----9----------9----9----9----9-| 
A|----------------------------------------------------| 
E|----------------------------------------------------| 



(Intro)

Bm               
D/F#    G                  Bm
Has our conscience shown? 
D/F#    G                    Bm
Has the sweet breeze blown? 
D/F#        G               Bm
Has all the kindness gone? 
D/F#       G
Hope still lingers on

(Riff 1)

A
I drink myself of newfound pity, sitting alone in New York City 
G
And I don't know why

(Intro)

Bm
D/F#   G           Bm
Are we listening
D/F#        G          Bm
To hymns of offering?
D/F#    G             Bm
Have we eyes to see
D/F#         G           Bm
That love is gathering? 

(Riff 1)

A
All the words that I've been reading, have now started the act of bleeding 
G
Into one... Into one 
 
D                A
So I walk up on high 
                   G
And I step to the edge 
                  D (D4 D D9 D)
To see my world below 
D                A
And I laugh at myself
                   C
As the tears roll down
                         G
'Cause it's the world I know

It's the world I know

(Riff 2)
Bm D/F# G

(Riff 1)

A
I drink myself of newfound pity, sitting alone in New York City 
G
And I don't know why

D                A
So I walk up on high 
                   G
And I step to the edge 
                  D (D4 D D9 D)
To see my world below 
D                A
And I laugh at myself
                   C
As the tears roll down
                         G
'Cause it's the world I know

It's the world I know

D/F# G (Até o final...)

Comentarios 0

Composición: Brandy Norwood / Carmina Burana / Ed Roland / Ross Childress
Ese no és el compositor? Avisenos.
Contribución: Igor Guilherme
Exhibir acordes »
publicidad
cerrar