Violet Hill

Coldplay

 Coldplay
Tono: B
		

(afinação db|gb|b|e|ab|db)


(verse)
Was a long and dark december
From the rooftops i remember
There was snow
White snow

Clearly i remember
From the windows they were watching
While we froze
Down below


E |------------------|
B |------------------|
G |------------------|
D |------------------|
A |5-4--3-2----------|
E |5-4--3-2----------|


(pre-chorus)
When the futures architectured
By a carnival of idiots on show
You better lie low


D |---------------|
A |-5-------------|
F |--7b9----------|
C |---------------|
G |---------------|
D |---------------|


(chorus riff)

If you love me
Won't you let me know?

D |----------------------------|
A |----------------------------|
F |9--7--14--9--7--9--9--------|
C |9--7--14--9--7--9--9--------|
G |7--5--12--7--5--7--7--------|
D |------------------0--0------|


(verse)
Was a long and dark december
When the banks became cathedrals
And the fog
Became god

Priests clutched onto bibles
And went out to fit thier rifles
And the cross
Was held aloft


D |----------------|
A |-5--------------|
F |--7b9-----------|
C |----------------|
G |----------------|
D |----------------|



D |------------------|
A |------------------|
F |------------------|
C |------------------|
G |-5-4--3-2---------|
D |-5-4--3-2---------|


(pre-chorus)
Bury me in honor
When i'm dead and hit the ground
A love like home, it unfolds


D |-----------------|
A |-17--------------|
F |-19b21-----------|
C |-----------------|
G |-----------------|
D |-----------------|


(chorus)
If you love me
Won't you let me know?

(solo)

(riff 3x)

E |--------------------------------|
B |--------------------------------| 
G |-9-8-6-9----4---6---------------|
D |---------6----6-----4-6---------|
A |--------------------------------|
E |--------------------------------|


(seguido pelo riff)

E |---------------|
B |---------------|
G |---------------|
D |---------------|
A |-5-4--3-2------|
E |-5-4--3-2------|  (2x)


(pre-chorus)
I don't want to be a soldier
That the captain of some sinking ship
Would stow
Far below


D |---------------|
A |-17------------|
f-19b21----------|
C |---------------|
G |---------------|
D |---------------|


(chorus)

If you love me,
Why'd you let me go?


D |----------------------------|
A |----------------------------|
F |9--7--14--9--7--9--9--------|
C |9--7--14--9--7--9--9--------|
G |7--5--12--7--5--7--7--------|
D |------------------0--0------|


(outro)

I took my love down to violet hill
There we sat in snow
All that time she was silent still
So, if you love me, won't you let me know?
If you love me, won't you let me know?
Texto Columnas
Alterar tom ½ tono ½ tono
sintonización acordes esconder tabs más »

Comentarios (6)

  • rickbond rickbond: Publicado en 20/07/2013 00:31

    Tem a Versão 2,com acordes

  • vivalavida vivalavida: Publicado en 29/07/2012 19:56

    Cade os acordes?

  • artzika01 artzika01: Publicado en 16/07/2012 22:20

    cade os acordes ?
    qro uma música q tenha acordes para GUITARRA!!!!!!!!

  • biancads biancads: Publicado en 03/07/2012 15:31

    Cadê os acordes? :(

  • leoccosta leoccosta: Publicado en 31/03/2011 14:43

    Queria mas video aulas do COLDPLAY! ! ! Com versões originais! Pleaseeee! ! ! Patrique Blacos! Vc é o cara! Abraço a todos! ! !

  • leoccosta leoccosta: Publicado en 31/03/2011 14:40

    Caros amigos do cifra club! Como faço pra afinar o violão em (db|gb|b|e|ab|db)??? Se vcs poderem colocar mais musicas do COLDPLAY! Seria O

Composición: Brian Kennedy / Chris Martin / Guy Berryman / Jeffrey Steele / John Ulhoa / Jon Buckland / Mark O'Toole / Mark Topham / Nick Baines / Will Champion
Ese no és el compositor? Avisenos.
Contribución: Europeu Correcciónes: Liilia e mais 1 »
  1. Sweet Child O' Mine - Guns N' Roses mantiene 2.706 exhibiciones
  2. Wonderwall - Oasis mantiene 2.170 exhibiciones
  3. Hey Jude - The Beatles mantiene 1.953 exhibiciones
  4. Nothing Else Matters - Metallica mantiene 1.730 exhibiciones
  5. Stairway To Heaven - Led Zeppelin mantiene 1.609 exhibiciones
  6. Wake Me Up - Avicii mantiene 1.531 exhibiciones
  7. When I Was Your Man - Bruno Mars mantiene 1.476 exhibiciones
  8. More Than Words - Extreme mantiene 1.368 exhibiciones
  9. Get Lucky - Daft Punk mantiene 1.306 exhibiciones
  10. Don't Let Me Down - The Beatles mantiene 1.253 exhibiciones
  1. The Beatles- mantiene 23.977 exhibiciones
  2. Metallica- mantiene 7.903 exhibiciones
  3. Guns N' Roses- mantiene 7.249 exhibiciones
  4. Nirvana- mantiene 6.045 exhibiciones
  5. One Direction- mantiene 5.535 exhibiciones
  6. Red Hot Chili Peppers- mantiene 5.460 exhibiciones
  7. Coldplay- mantiene 4.717 exhibiciones
  8. Bruno Mars- mantiene 4.601 exhibiciones
  9. Oasis- mantiene 4.313 exhibiciones
  10. Green Day- mantiene 3.276 exhibiciones
Exhibir acordes »

Acordes y tabs

Aprenda

Studio Sol

©1996 - 2014 Cifra Club · el primero, mayor y más accedido del Brasil · 329 mil músicas · 6.0 millones de personas registradas

publicidad
cerrar