Christmas Lights

Coldplay

 Coldplay
Tono: G
		
Intro:


E|-15-----------14-------------------------------------|
B|-----15-15--------15-15----12-13-15--15-15---15-15---|
G|-----0--0---------0--0---------------0--0----0--0----|
D|-----------------------------------------------------|
A|-----------------------------------------------------|
E|-----------------------------------------------------|



     G         (3x)|   C9       D       | G         (3x)|   C9       D       |
                 |                    |               |                    |
E|-3---7---------|---------10-7-------|-3---7---------|---------10-7-------|
B|-------0-------|-8-----8------10-8--|-------0-------|-8-----8------10-8--|
G|-0-----0-------|-0---0--------------|-0-----0-------|-0---0--------------|
D|---0-------0---|--------------------|---0-------0---|------------0-------|
A|---------------|---7--------9-------|---------------|--------------------|
E|-3-------------|--------------------|-3-------------|---8----------------|


G
Christmas night, another fight
                 Cadd9 D
Tears we cried a flood
G
Got all kinds of poison in
             Cadd9 D
Poison in my blood

G
I took my feet

To Oxford Street
                  Cadd9 D
Trying to right a wrong
G
Just walk away

Those windows say
                          Cadd9 D
But I can't believe she's gone

Cadd9
When you're still waiting for the snow to fall
                         D2           G
Doesn't really feel like Christmas at all

( G ) 3x

( Cadd9  D )

Em7
Up above candles on air flicker
        Cadd9            G
Oh they flicker and they float
G
But I'm up here holding on
             Dsus4          D
To all those chandeliers of hope

Em7
Like some drunken Elvis singing
Cadd9               G
I go singing out of tune
G
Saying how I always loved you darling
Dsus4        D
And I always will

Cadd9
Oh when you're still waiting for the snow to fall
                         D2
Doesn't really feel like Christmas at all
G
Still waiting for the snow to fall
                            D2
It doesn't really feel like Christmas at all

( G  G/F#  Cadd9  D  Cadd9 )

Time signature change

                G
Those Christmas lights

Light up the street
               Cadd9        G
Down where the sea and city meet
              Cadd9           Em7
May all your troubles soon be gone
             G            Gsus4  G
Oh Christmas lights keep shining on

Cadd9                          G
Those Christmas lights
Cadd9        G
Light up the street
              Cadd9             G
Maybe they'll bring her back to me
Cadd9                         G
Then all my troubles will be gone
             Dsus4               G
Oh Christmas lights keep shining on

(instrumental 2x) G Cadd9 G

G       Cadd9           Em7
Woahohohohhhhhhhahhhhhohohhhh

( G/F#  G  Gsus4  G )

G
Oh Christmas lights
Gsus4        G
Light up the street
             Cadd9
Light up the fireworks in me
             Em7
May all your troubles soon be gone

G                   Cadd9        G
Oh Christmas lights keep shining on

( Dsus4  Cadd9  G )
1.022 exhibiciónes

Comentarios 0

Composición: Sabe quien és el compositor? Envíenos. Contribución: lizpinkrock Correcciónes: marcus_medeiros e mais 1 »
Exhibir acordes »
publicidad
cerrar