Me Encontra

Charlie Brown Jr.

 Charlie Brown Jr.
Tono: E
		
Intro 2x: C#  E  B  A


E|---0--0--0--0-0-0-0--0--0-0-0-0--0--|
B|--10-10-10-10-8-7---10-10-8-7-------|
G|------------------9-----------9\----|
D|------------------------------------|
A|------------------------------------|
E|------------------------------------|



E|--0--0--0--0-0-0-0--0--0--0--0-0------0-0-0-0-0--|
B|-10-10-10-10-8-7---12-12-10-10-9h10p9\-----------|
G|-----------------9-------------------------------|
D|-------------------------------------------------|
A|-------------------------------------------------|
E|-------------------------------------------------|



E|---0--0--0--0-0-0-0--0--0-0-0-0--0--|
B|--10-10-10-10-8-7---10-10-8-7-------|
G|------------------9-----------9\----|
D|------------------------------------|
A|------------------------------------|
E|------------------------------------|



E|--0--0--0--0-0--0-0--0-0-0--|
B|-10-10-10-10-8h10---12~-----|
G|----------------------------|
D|----------------------------|
A|----------------------------|
E|----------------------------|


( C#5  E5  A5  )
Hoje eu vou sair pra encontrar amor
Que Espero a tanto tempo e ainda não rolou
O Vento diz que é hoje em meio a multidão
que eu vou encontrar a dona do Meu coração

Ai Sempre...

               E          C#m
E|---------7/---------4-------------
B|----7-8---------------------5-4---
G|--9-----------------------6--------
D|--9--------------------6----------
A|--------------------4-------------
E|--------------------4-------------


a sorrir, chorar, ter alguem pra compartilhar
Sempre viver pra alguem que me ama e dividir Sempre
Felicidade e Amor... Então

( C#m  E  B  A )
Me Encontra, ou deixa eu Te Encontrar
Me Encontra, ou deixa eu Te Encontrar
Me Encontra, ou deixa eu Te Encontrar
Me Encontra, ou deixa eu Te Encontrar

(Intro)

( C#5  E5  A5 )
Eu não Conheço todas as flores
Mas vou mandar todas que eu puder
Vivemos tempos de loucos Amores
Só é feliz quem sabe o que quer

( C#5  E5  A5 )
Me Encontra, ou deixa eu Te Encontrar
Me Encontra, ou deixa eu Te Encontrar
Me Encontra, ou deixa eu Te Encontrar
Me Encontra, ou deixa eu Te Encontrar
Solo:

E|---------------------------------------|
B|---3h5p3-5-12-12-12-10-10-10-9-9-9~----|
G|-5-------------------------------------|
D|---------------------------------------|
A|---------------------------------------|
E|---------------------------------------|



E|---------------------------------------|
B|---3h5p3-5--12-12-12-10-10-10-9-9-9~---|
G|-5-------------------------------------|
D|---------------------------------------|
A|---------------------------------------|
E|---------------------------------------|



E|---------------------------------------|
B|----9--12---9-12---9-12---9-12---------|
G|--9-------9------9------9------11~\----|
D|---------------------------------------|
A|---------------------------------------|
E|---------------------------------------|



E|---------------------------------------|
B|----9--12---9-12---9-12---9-12---------|
G|--9-------9------9------9------9~\-----|
D|---------------------------------------|
A|---------------------------------------|
E|---------------------------------------|



E|---------------------------------------|
B|---3h5h3-5--12-12-12-10-10-10-9-9-9~---|
G|-5-------------------------------------|
D|---------------------------------------|
A|---------------------------------------|
E|---------------------------------------|



E|---------------------------------------|
B|---3h5h3-5--12-12-12-10-10-10-9-9-9~---|
G|-5-------------------------------------|
D|---------------------------------------|
A|---------------------------------------|
E|---------------------------------------|



E|---------------------------------------|
B|-12/21--12/19--16h17p16--12/19--12-----|
G|---------------------------------------|
D|---------------------------------------|
A|---------------------------------------|
E|---------------------------------------|



E|-------------------------------------------------------------12-|
B|----------7---7--9----9--12--9--------------12---12-14-12-14----|
G|-------9----9------11----------11-----11-13----13---------------|
D|----11----------------------------------------------------------|
A|----------------------------------------------------------------|
E|-9---------------------------------12---------------------------|


( C#5  E5  A5)

( C#5  E5  A5 )
Fico Pensando Onde Está Você
E Se você estaria pensando em me encontrar
Como Sou, Onde Estou, e Onde Quero Chegar?
Como Sou, Como é que Vai Ser, e Onde Vou Te Levar?
Mas Se Você me ver, pode ascenar pra mim
já pensou que louco te encontrar assim?
Eu Vou Na Boa Vou Na Fé Sei Que Vou Te Encontrar
E Quando Eu te Encontrar Nos Vamos Comemorar!

( C#5  E5  A5 )
Me Encontra, ou deixa eu Te Encontrar
Me Encontra, ou deixa eu Te Encontrar
Me Encontra, ou deixa eu Te Encontrar
Me Encontra, ou deixa eu Te Encontrar
Te encontrar.
Texto Columnas
Alterar tom ½ tono ½ tono
sintonización acordes esconder tabs más »

Comentarios 110

  • diego.teixeira diego.teixeira: Publicado en 12/07/2014 14:16

    faz vídeo aula na guitara vlw

  • Alice Alice: Publicado en 07/07/2014 00:24

    Faz vídeo aula dessa música, vlw.

  • Sergio Sergio: Publicado en 01/07/2014 14:14

    video aula vlw

  • Milton Milton: Publicado en 26/06/2014 18:20

    Fassam uma video aula dessa musica por favor versão em violão!!! Ajuda ae cifraclub!

  • Felipe Felipe: Publicado en 25/06/2014 17:25

    VIDEO AULA

  • Milton Milton: Publicado en 20/06/2014 18:02

    Video aula por favor cifraclub!

  • italo italo: Publicado en 19/06/2014 15:08

    VIDEO AULA!!!!

  • Viictör Viictör: Publicado en 15/06/2014 23:00

    VÍDEO AULA!!! MANDA VÍDEO AULA!!!

  • Fernando Fernando: Publicado en 11/06/2014 16:09

    video aula Professores do cifra club, pra animar a galera!

  • Gabriel Gabriel: Publicado en 10/06/2014 00:38

    video aula poxa

Exhibiendo 10 de 110 comentarios Mostrar más ver todo »
Composición: Eduardo Frigerio / Finn Bjarson / Michelle Vendome / Silvio Rochael / Tuomas Ilmavirta
Ese no és el compositor? Avisenos.
Contribución: GABRI ;x Correcciónes: Breno Bernardes e mais 2 »
  1. Sweet Child O' Mine - Guns N' Roses mantiene 2.742 exhibiciones
  2. Wonderwall - Oasis mantiene 2.042 exhibiciones
  3. All Of Me - John Legend mantiene 1.616 exhibiciones
  4. When I Was Your Man - Bruno Mars mantiene 1.580 exhibiciones
  5. Nothing Else Matters - Metallica mantiene 1.557 exhibiciones
  6. Stairway To Heaven - Led Zeppelin mantiene 1.476 exhibiciones
  7. More Than Words - Extreme mantiene 1.426 exhibiciones
  8. Hey Jude - The Beatles mantiene 1.408 exhibiciones
  9. The Scientist - Coldplay mantiene 1.323 exhibiciones
  10. Wake Me Up - Avicii mantiene 1.110 exhibiciones
  1. The Beatles- mantiene 21.392 exhibiciones
  2. Guns N' Roses- mantiene 7.167 exhibiciones
  3. Metallica- mantiene 6.861 exhibiciones
  4. Red Hot Chili Peppers- mantiene 5.255 exhibiciones
  5. Coldplay- mantiene 5.161 exhibiciones
  6. Nirvana- mantiene 5.132 exhibiciones
  7. One Direction- mantiene 4.644 exhibiciones
  8. Bruno Mars- mantiene 4.579 exhibiciones
  9. Oasis- mantiene 4.527 exhibiciones
  10. Green Day- mantiene 3.576 exhibiciones
Exhibir acordes »

Acordes y tabs

Aprenda

Studio Sol

©1996 - 2014 Cifra Club · el primero, mayor y más accedido del Brasil · 336 mil músicas · 6.2 millones de personas registradas

publicidad
cerrar