Me Encontra

Charlie Brown Jr.

 Charlie Brown Jr.
Tono: D#
		
(intro 2x) Cm  Eb  Ab  Bb


E|-------------------------------------------------------------------------------|
G|---------------------------------------------------------------11--------------|
B|-13-13-13-13-12-10----13-13-12-10------13-13-13-13-12-13-10-------13-12-13-12--|
D|-------------------13-------------13------------------------13-----------------|
A|-------------------------------------------------------------------------------|
E|-------------------------------------------------------------------------------|



E|-------------------------------------------------------------|
G|---------------------------------------------------------11--|
B|-13-13-13-13-12-10----13-13-12-10------13-13-13-13-12-13-----|
D|-------------------13-------------13-------------------------|
A|-------------------------------------------------------------|
E|-------------------------------------------------------------|


Cm                         Eb
Hoje eu vou sair para encontrar o amor
Ab                         Bb
Que espero há tanto tempo e ainda não rolou
Cm                              Eb
O vento diz que é hoje em meio à multidão
Ab                               Bb
Que eu vou encontrar a dona do meu coração
     Cm       Eb
E aí sempre
Ab               Bb                             Cm       Eb
Sorrir e chorar e ter alguém pra compartilhar sempre
Ab                 Bb                  Cm       Eb
Viver para alguém que me ama e dividir sempre
Ab      Bb
Felicidade e amor

          Cm          Eb
Então me encontra
   Bb               Ab
Ou deixa eu te encontrar
   Cm          Eb
Me encontra
   Bb               Ab
Ou deixa eu te encontrar
   Cm          Eb
Me encontra
   Bb               Ab
Ou deixa eu te encontrar
   Cm          Eb
Me encontra
   Bb               Ab
Ou deixa eu te encontrar

(intro)

Cm             Eb
Eu não conheço todas as flores,
Ab                Bb
Mas vou mandar todas que eu puder
Cm                Eb
Vivemos tempos de loucos amores
Ab               Bb
Só é feliz quem sabe o que quer

     Cm          Eb
Me encontra
   Bb               Ab
Ou deixa eu te encontrar
   Cm          Eb
Me encontra
   Bb               Ab
Ou deixa eu te encontrar
   Cm          Eb
Me encontra
   Bb               Ab
Ou deixa eu te encontrar
   Cm          Eb
Me encontra
   Bb               Ab
Ou deixa eu te encontrar


E|--------------------------------------------------|
G|--------------------------------------------------|
B|----------15-13-12--12-13-12------------15-13-12b-|
D|-10h12-13----------------------10h12-13-----------|
A|--------------------------------------------------|
E|--------------------------------------------------|



E|--------------------------------------------------------------------------------|
G|-------11-------11------11-------11-------------11-------11-------11------11----|
B|-10-12----10-12----10-12---10-12----10b---10-12----10-12----10-12---10-12----8b-|
D|--------------------------------------------------------------------------------|
A|--------------------------------------------------------------------------------|
E|--------------------------------------------------------------------------------|



E|---------------------------------------------------------15----13--------------13-----|
G|------------------------------------------------------------------15h16h15------------|
B|----------15-13-12--12-13-12------------15-13-12b-----15----15--------------15----15b-|
D|-10h12-13----------------------10h12-13-----------------------------------------------|
A|--------------------------------------------------------------------------------------|
E|--------------------------------------------------------------------------------------|



E|--------------------------------------------------------------11b-|
G|-------------------------11-----------------11----11-13-11-13-----|
B|-------10----10-12-10-12----12-10-----10-12----12-----------------|
D|-10-13----13----------------------13------------------------------|
A|------------------------------------------------------------------|
E|------------------------------------------------------------------|


( Cm Eb )  Bb

Cm                   Eb              Bb                    Ab
Fico pensando onde está você e se você estaria pensando em me encontrar
Cm                           Eb
Como sou, onde estou e onde quero chegar?
Bb                           Ab
Como sou, como é que vai ser e onde vou te levar?
Cm                          Eb
Mas se você me ver pode acenar pra mim!
Bb                          Ab
Já pensou que louco te encontrar assim?
Cm                            Eb
Eu vou na boa, eu vou na fé, sei que vou te encontrar
Bb                           Ab
E quando eu te encontrar nós vamos comemorar

     Cm          Eb
Me encontra
   Bb               Ab
Ou deixa eu te encontrar
   Cm          Eb
Me encontra
   Bb               Ab
Ou deixa eu te encontrar
   Cm          Eb
Me encontra
   Bb               Ab
Ou deixa eu te encontrar
   Cm          Eb
Me encontra
   Bb               Ab
Ou deixa eu te encontrar
Cm
Te encontrar

Comentarios 4

  • lucas.l.iav lucas.l.iav: Publicado en 13/08/2013 18:38

    Sobe a musica meio tom,fica mais aguda,pra mim ficou melhor para cantar,e tb ficam bem facil,oritmo varia só no C#m com uma batida mais seca

  • rafael_zete rafael_zete: Publicado en 16/03/2013 19:03

    Bota video aula ae, mas na guitarra flws abraços..

  • fernanddo fernanddo: Publicado en 07/05/2012 17:54

    Na Tonalidade De G fica bem mais facil de tocar

Composición: Eduardo Frigerio / Finn Bjarson / Michelle Vendome / Silvio Rochael / Tuomas Ilmavirta
Ese no és el compositor? Avisenos.
Contribución: Pedro Kronbauer
Exhibir acordes »
publicidad
cerrar