Tequila

Champs

 Champs
Tono: A#
		
Tabbed by: Andres (silvadolla)
Email: *

This is played in Standard Tuning EADGBE.


Guitar I. (This is played throught the song)


e|--5--5--3------|
B|o-6--6--4----o-|
G|--5--5--3------|
D|---------------| x2
A|o------------o-|
E|---------------|

    d  d  d



e|--3--3--3--3----|
B|--4--4--4--4----|
G|--3--3--3--3----| Play this then start at guitar 1 again
D|----------------|
A|----------------|
E|----------------|

    u  d  u  d


This is what the horn plays

Main part:


E|--------------------------------------------| x4
B|o-----------------------------------------o-|
G|--------------------------------------------|
D|--------------------------------------------|
A|o--3--8--8p6--10--6-8-3-3-8-8p6--10--6-8--o-|
E|--------------------------------------------|


ClimaX:


e|-----------------------------------------------------|
B|-----------------------------------------------------|
G|-----------------------------------------------------|
D|-----------------------------------------------------|
A|-6-8--11--8--6-8--11--8--6-8--11--8-10-10-10-10-10-3-|
E|-----------------------------------------------------|


The horn has a solo at the end, still figuring out how to transcribe that.
This song is pretty easy to play. Listen to the song for the rhythm. You don't have to 
pulloffs for the slurs, slides sound pretty good here too.
Email me if you see any mistakes or want to offer suggestions

Comentarios 0

Composición: Calvin Broadus / Jim Swafford
Ese no és el compositor? Avisenos.
Consigo tocarSin embargo, para tocar esta canción. ¡Sé el primero!
    Aún no puedo reproducir
    Exhibir acordes »
    publicidad
    cerrar