Carlos Santana

Black Magic Woman

2.221 reproducciones
Tono: F

E|----------------------------------------|
B|-8p6------------------6h8p6-----8-------|
G|---------7b9b7---------------------9b7--|
D|----------------------------------------|
A|----------------------------------------|
E|----------------------------------------|


E|-5---------------3-----------------5--------------3----------------10-|
B|-----8---6\5---------6---5\3----------8---6\5---------6---5\3-----10--|
G|-----------------------------------------------------------------10---|
D|----------------------------------------------------------------12----|
A|---------------------------------------------------------------12-----|
E|--------------------------------------------------------------10------|


E|------------------------------------------------------------------|
B|-15-13-15b13-10-13b15--b13p10------13b15---15b13p10---------------|
G|----------------------------------------------------12-14b12p10-9-|
D|------------------------------------------------------------------|
A|------------------------------------------------------------------|
E|------------------------------------------------------------------|


E|-------12h13-12-13p12p10---------------------------10-------------------|
B|-10-13-------------------13b15--15b13-10----13b15-----13-10-------------|
G|------------------------------------------------------------12b14b12-10-|
D|------------------------------------------------------------------------|
A|------------------------------------------------------------------------|
E|------------------------------------------------------------------------|


E|-------10-13-13b15-----15b17---b15----13-----18b20-\--|
B|----11-----------------------------15-----------------|
G|-12---------------------------------------------------|
D|------------------------------------------------------|
A|------------------------------------------------------|
E|------------------------------------------------------|


E|-10----------------------------------------------------------10\---|
B|-----------------10------------------------------------------10\---|
G|-----14b12p10-12----12--10h12p10-----------------------------10\---|
D|---------------------------------12-10--12-10----------------------|
A|----------------------------------------------12-11-10\8h10--------|
E|-------------------------------------------------------------------|


                    Dm                   C
Got a black magic woman   Got a black magic woman
        Dm                                         A#
I gotta black magic woman, got me so blind I can't see
(Riff 1)

E|----------------------|
B|-----------6--5--3----|
G|-3h5p3-----5--5--3----|
D|----------------------|
A|----------------------|
E|----------------------|


             Dm                 C                                Dm
That she's a black magic woman, tryin' to make a devil out of me
                                Dm
Don't turn your back on me baby

E|-10-10-10-----------10-10----|
B|-10-10-10--8/10-----10-10----|
G|-10-10-10--9/10-----10-10----|
D|-----------------------------|
A|-----------------------------|
E|-----------------------------|


                              C
Don't turn you back on me baby
                     Dm                                               A#
Yes, don't turn your back one me baby, start messin' 'round with your tricks
(Riff 1)
             Dm                   C                               Dm
Don't turn your back on me baby, you just might pick up my magic sticks

E|------------------------------13p12p10----------------------|
B|-13b15--15-13---15b13-10---------------13p12p10-------------|
G|------------------------------------------------13p12p10-9--|
D|------------------------------------------------------------|
A|------------------------------------------------------------|
E|------------------------------------------------------------|


E|------------12h13p12p10----------13b15----15b17b15p13-15b17b15-13---18b20\-|
B|------10-13-------------13b15----------------------------------------------|
G|-9h10----------------------------------------------------------------------|
D|---------------------------------------------------------------------------|
A|---------------------------------------------------------------------------|
E|---------------------------------------------------------------------------|


E|-12h13p12p10-12h13p12p10----------------------------------------------------|
B|-------------------------13b15-15-13-10-------------10----10-13-10----------|
G|----------------------------------------14b12p10----10-------------14b12p10-|
D|-------------------------------------------------12----12-------------------|
A|----------------------------------------------------------------------------|
E|----------------------------------------------------------------------------|


E|-------------------------------------------10-----------------------|
B|-13b15--15b17--13b15---------------13b15------13-10-----------------|
G|----------------------14b12b14----------------------12--14b12p10-9--|
D|--------------------------------------------------------------------|
A|--------------------------------------------------------------------|
E|--------------------------------------------------------------------|


E|------------------------------10-----------------10-12-13b15-|
B|-10-13-b-15--13b15-15b13p10---10--10----------11-------------|
G|----------------------------------10-10----12----------------|
D|-------------------------------------------------------------|
A|-------------------------------------------------------------|
E|-------------------------------------------------------------|


E|-15b17---18b20---18b20-20-------------10---------10---------10-|
B|---------------------------10~-----13------10-13------10-13----|
G|---------------------------------------------------------------|
D|---------------------------------------------------------------|
A|---------------------------------------------------------------|
E|---------------------------------------------------------------|


E|-13p10--13p10-13p10------------------------------------------------------|
B|--------------------13p10-13p10------------------------------------------|
G|--------------------------------10p12-10p12-------------------------9h10-|
D|--------------------------------------------12-10-------------10h12------|
A|-----------------------------------------------------10h11h12------------|
E|-------------------------------------------------------------------------|


E|------------------------------|
B|-----------------------10p8---|
G|----------------9-10--------9-|
D|----------10h12---------------|
A|-10h11h12---------------------|
E|------------------------------|


                         Dm                      C
Got your spell on me baby   Got your spell on me baby
                  Dm                                      A#
Yes, you got your spell on me baby, turnin' my heart into stone
(Riff 1)
  Dm                     C                           Dm
I need you so bad, magic woman I can't leave you alone

E|-------------------------------------------------|
B|-8p6------------------6h8p6-----8----------------|
G|---------7b9b7---------------------9b7-----------|
D|-------------------------------------------------|
A|-------------------------------------------------|
E|-------------------------------------------------|

                                Gypsy Queen (Gabor Szabo)

E|-------------------------------------2|-2h3p2----2---2h3p2---2----0-2/5-|
B|-------------------------------------3|-------3--3---------3-3--3-------|
G|-------------------------------------2|----------2-----------2----------|
D|-0-----0-----0-----0-----0-----0-----0|----------0-----------0----------|
A|----0-----0-----0-----0-----0-----0---|---------------------------------|
E|--------------------------------------|---------------------------------|


E|-2h3p2p0---2---|----------------------------------2----2/----|
B|---------3-3---|---3---1-1-1-1--------------------3----------|
G|-----------2---|-2--2----------0h2--0-0-----------2----------|
D|-----------0---|------------------------4--4p2p0--0----------|
A|---------------|---------------------------------------------|
E|---------------|---------------------------------------------|


E|-10----10----------------10----10----------10----10---------------|
B|----13------13b15b13p10-----13----------------13------13b15b13p10-|
G|----------------------------------14b12p10------------------------|
D|------------------------------------------------------------------|
A|------------------------------------------------------------------|
E|------------------------------------------------------------------|


E|-10----10---------------------------------15------15-b-17----14p10----|
B|----13-------------------------------------------------------------15-|
G|----------14b12p10----------9-----------------------------------------|
D|--------------------12-10-----10-10h12--------------------------------|
A|----------------------------------------------------------------------|
E|----------------------------------------------------------------------|


E|-20--20-20-20-20-20-20-20-20-20-20---20--20-20-20-20-20-20-20-20-20-20-|
B|-----------------------------------------------------------------------|
G|-----------------------------------------------------------------------|
D|-----------------------------------------------------------------------|
A|-----------------------------------------------------------------------|
E|-----------------------------------------------------------------------|


E|-2-----2-----2------0---3---0--2----0---3---0--2----0---3---0--2---|
B|-3-----3-----3------1---3---2--3----1---3---2--3----1---3---2--3---|
G|-2-----2-----2------0---0---2--2----0---0---2--2----0---0---2--2---|
D|-0-----0-----0------0---0---2--2----0---0---2--2----0---0---2--2---|
A|--------------------3---2---0-------3---2---0-------3---2---0------|
E|------------------------3---------------3---------------3----------|


E|--------------------------------------0--3--0----------------|
B|--------------------------------------1--3--2----------------|
G|--------------------------------------0--0--2----------------|
D|--------------------------------------2--0--2----------------|
A|-5--0-3-5--0-7-5----------------------3--2--0----------------|
E|-----------------------------------------3-------------------|
 |---7x----------|
    Composición: P. Green

    Comentarios 7

    • henrryq henrryq: Publicado en 29/11/2013 21:26

      tentem transformar em partitura que fica melhor pra ler, embora poucos saibam ler partituras

    • tiago.ferrazbatista.5 tiago.ferrazbatista.5: Publicado en 12/11/2013 15:02

      ma que merda e essa? como eu vo toca isso?

    • Henrique Henrique: Publicado en 20/08/2013 20:41

      isso se le com um dicionario marciano?

    • Fabiano Fabiano: Publicado en 18/07/2013 13:22

      como vou entender essa merda

    • Rômulo Rômulo : Publicado en 14/07/2013 19:23

      Mas que porra é essa? olha o jeito que colocam a cifra tnc.

    • leo2505 leo2505: Publicado en 04/01/2013 21:04

      VIDEO AULA!

    • ja0 ja0: Publicado en 05/05/2012 13:36

      KD VIDEO AULA :?

    ¿conseguiste tocar?

    • dumba
    • bieel.
    • Guilherme
    • ewerton_santos
    Luiz Feijo da Silva Neto453 visualizações
      ver cover de otras canciones »
      0:00 / 0:00

      Capitulos

        3 versões de guitarradificuldadreproduccionescontribuición y correción
        3 versões de guitarra eléctricadificuldadreproduccionescontribuición y correción
        3 versões de cavacodificuldadreproduccionescontribuición y correción
        3 versões de tecladodificuldadreproduccionescontribuición y correción
        2 versões de contrabajoreproduccionescontribuición y correción
        1 versão de Guitar Proformatodownloadscontribuición
        play/pausefechar subir/bajar velocidad
        6ª cuerda E5ª cuerda A4ª cuerda D3ª cuerda G2ª cuerda B1ª cuerda E
          acordes
          publicidad
          cerrar
          ok