Besame

Camila

 Camila Compositor: Mario Domm
Tono: E(acordes na forma do tom D)
Cejilla en la 2ª casa		
(capo 2ª casa)

() Nota sin casi sonido

(intro Piano)

   G     D       Em     Bm
E|-3-----2-------0--------------
B|--(3)---(3)-----(0)----3------
G|----(0)---(0)------(0)--(4)---(x2) (Luego entra la guitarra)
D|--------------------------(5)-
A|------------------------------
E|-3----------------------------



  G     D       Em     Bm
E|-3-----2-------0----------------------------------
B|--(3)---(3)-----(0)----3---------0-------(0)------
G|----(0)---(0)------(0)--(4)--------(0)--(0)--(0)--
D|--------------------------(5)-----(2)--(2)--(2)---
A|---------------------------------2----------------
E|-3------------------------------------------------
                              |No estoy seguro de esta parte

                                pero aqui la pongo jeje|
(intro Guitarra)

E|-------------------10h12-------------------------
B|-----7h8--10/12----------10h12--8h10--8-7h8------
G|-7/9-----------------------------------------7/9-
D|-------------------------------------------------
A|-------------------------------------------------
E|-------------------------------------------------


(intro piano forma 2) (Las notas son las mism simplement
                        octava alta de la misma)


   G    D    Em   Bm
E|-15---14---12---10---
B|---0----0----0----0--
G|----0----0----0----0-
D|---------------------
A|---------------------
E|-0-------------------


    G  D Em Bm
Bésame
     G  D  Em Bm
ya es tiempo
       G  D Em Bm
sin piedad
        Em
y en silencio
    G  D Em Bm
Bésame

        e--------
        B--------
        G-----9--
        D-7/9----


      G      D   Em  Bm
frena el tiempo

                e------------------
                B------------------
                G---9h7-9/11-11/7--
                D-9----------------

      G  D Em Bm
haz crecer
        Em
lo que siento uuu

(refrão)
    Am
Bésame
   Bm
como si el mundo
            Em     D
se acabara despúes
    Am
Bésame
 Bm
y beso a beso
                Em    D
pon el cielo al revés
     Am
Bésame
       Bm
sin razón
        G         D   Em
porque quiere el corazón

     G  D  Em  Bm
Bésame

(intermedio) G   D   Em   Bm

      G  D  Em Bm
Sienteme
       G   D  Em Bm
en el viento
      G   D  Em Bm
mientras yo
       Em
muero lento

     G  D Em Bm
Bésame
     G   D  Em Bm
sin motivos
     G  D Em Bm
y estaré
 Em
siempre contigo.

(refrão)
    Am
Bésame
   Bm
como si el mundo
            Em     D
se acabara despúes
    Am
Bésame
 Bm
y beso a beso
                Em    D
pon el cielo al revés
     Am
Bésame
       Bm
sin razón
        G         D   Em
porque quiere el corazón
     G  D  Em  Bm
Bésame

G   D   Em   Bm
             uu Besame

    Am
Bésame
   Bm
como si el mundo
            Em     D
se acabara despúes
    Am
Bésame
 Bm
y beso a beso
                Em    D
pon el cielo al revés
     Am
Bésame
       Bm
sin razón
        G         D   Em
porque quiere el corazón
     G  D  Em  Bm
Bésame

  G              Em
Bésame, asi sin compasión
  G                 Em
quedate en mi sin condición
 Am                 D Aun no estoy seguro si es
dame tan solo un motivo    "D" o "Bm" tocan el que
                            gusten.
            G D Em Bm
y me quedo yo

                e------
                B------
                G----9-
                D-7/9--


            G  D Em  Bm
y me quedo yo

                 e------------
                 B------------
                 G---9h7-9/11-
                 D-9----------


           G  D  Em Bm
y me quedo    yo

              e---------------
              B-12/14--12--10-
              G---------------


            D         Em
y me quedo yo

          e-3h2----------
          B----3---------
          G------2-0-----
          D----------4-2-
          A------------2-
          E------------0-
Texto Columnas
Alterar tom ½ tono ½ tono
sintonización acordes esconder tabs más »
4.677 exhibiciónes

Comentarios 0

Composición: Cecil Womack / Jason Brown / Jonathan Geffen / Miki Pii
Ese no és el compositor? Avisenos.
Contribución: Romero Flores
Consigo tocarSin embargo, para tocar esta canción. ¡Sé el primero!
    Aún no puedo reproducir
    1. Sweet Child O' Mine - Guns N' Roses mantiene 3.132 exhibiciones
    2. Wonderwall - Oasis mantiene 2.337 exhibiciones
    3. All Of Me - John Legend mantiene 2.079 exhibiciones
    4. Nothing Else Matters - Metallica mantiene 1.818 exhibiciones
    5. Stairway To Heaven - Led Zeppelin mantiene 1.611 exhibiciones
    6. When I Was Your Man - Bruno Mars mantiene 1.581 exhibiciones
    7. More Than Words - Extreme mantiene 1.418 exhibiciones
    8. I'm Yours - Jason Mraz mantiene 1.405 exhibiciones
    9. The Scientist - Coldplay mantiene 1.387 exhibiciones
    10. Hey Jude - The Beatles mantiene 1.308 exhibiciones
    1. The Beatles- mantiene 22.347 exhibiciones
    2. Guns N' Roses- mantiene 7.730 exhibiciones
    3. Metallica- mantiene 7.209 exhibiciones
    4. Coldplay- mantiene 5.242 exhibiciones
    5. Nirvana- mantiene 5.063 exhibiciones
    6. One Direction- mantiene 5.031 exhibiciones
    7. Oasis- mantiene 5.014 exhibiciones
    8. Red Hot Chili Peppers- mantiene 5.001 exhibiciones
    9. Bruno Mars- mantiene 4.798 exhibiciones
    10. Ed Sheeran- mantiene 4.249 exhibiciones
    Exhibir acordes »

    Acordes y tabs

    Aprenda

    Studio Sol

    ©1996 - 2014 Cifra Club · el primero, mayor y más accedido del Brasil · 341 mil músicas · 6.3 millones de personas registradas

    publicidad
    cerrar