Sozinho

Caetano Veloso

 Caetano Veloso Compositor: Peninha
Tono: G
		
(intro)

   F7M                    Em7(9)       G/A
E|----0---0-----0-------------2--2---3------------------|
B|----1---1-------1-----------3--3---2---3---3---3---3--|
G|----2---2---------2---------0--0---0---4---4---4---4--|
D|---------------------------------------5---5---5---5--|
A|--------------------------2----------0---0---0---0----|
E|-1--------1-1-------1---0-----------------------------|


D6(9)           A7/C#        (B9 Bm)     Bm Bm7
 Às vezes no silêncio da noite
Em             Em/D       A7/C#   A7
 Eu fico imaginando nós dois
D6(9)            A7/C#       B9 Bm     Bm    B7(4) Bm
 Eu fico ali sonhando acordado,       jun - tan - do

Em           Em/D        A7/C#  A7        Bm
 O antes o agora e o depois        A|-0-1-2-|


Bm                F#m7         G7M
 Por que você me deixa tão solto?
Bm                 F#m7       Bm/E
 Por que você não cola em mim?
Bm               F#m7        G7M
 Tô me sentindo muito sozinho

D6(9)               A7/C#       (B9 Bm)    Bm Bm7
 Não sou nem quero ser o seu dono
Em                    Em/D        A7/C#  A7
 É que um carinho às vezes cai bem
D6(9)                A7/C#      B9 Bm    Bm    B7(4) Bm
 Eu tenho os meus desejos e planos      se - cre -  tos
Em              Em/D         A7/C#      A7
 Só abro pra você mais ninguém

(passagem 1)

Bm                  F#m7     G7M
 Porque você me esquece e some
Bm                  F#m7         Bm/E
 E se eu me interessar por alguém
Bm              F#m7         G7M
 E se ela de repente me ganha

  D6(9)                  A7/C#            G7M
Quando a gente gosta é claro que a gente cuida
 Em              Em/D                 C
Fala que me ama só que é da boca pra fora
D6(9)              A7/C#         Bm
Ou você me engana ou não está madura

(passagem 2)

G/A              D6(9)               G/A
Onde está você agora

  D6(9)                  A7/C#            G7M
Quando a gente gosta é claro que a gente cuida
 Em              Em/D                 C
Fala que me ama só que é da boca pra fora
D6(9)              A7/C#         Bm         G
Ou você me engana ou não está madura (passagem 2)
G/A
Onde está você agora?

TABS:

(1ª parte do ritmo)

  D6(9)     A7/C#      B9    Bm   B9 Bm    Bm7
E|-----5--------5---------------2-----------|
B|-----5--------5--------2---3----2--3------|
G|-----4--------0--------4---4----4--4---4-2|
D|-----------------------4---4----4--4---4-4|
A|-5------5-4------4---2----------2---------|
E|------------------------------------------|


(2ª parte do ritmo)

   Em       Em/D       A7/C#     A7
E|-----0--------0--------5--5--5------------|
B|-0---0--------0--------5--5--5------2--2--|
G|-0------------0--------0--0--0------0--0--|
D|-2------2-0------0------------------2--2--|
A|---------------------4---------0--0------0|
E|-0----------------------------------------|


(variação da 1ª parte do ritmo)

   B9    Bm      B7(4) Bm
E|-------------2-------2--------------------|
B|----2---3----3---5---3--------------------|
G|----4---4----4---2---4--------------------|
D|----4---4--------4------------------------|
A|--2---------------------------------------|
E|------------------------------------------|

               jun tan  do

(variação da 2ª parte do ritmo)

    A7/C#     A7          Bm (2ªparte)
E|----5--5--5-------------------------------|
B|----5--5--5------2------------------------|
G|----0--0--0------0------------------------|
D|-----------------2------------------------|
A|--4---------0--0----0-1-2-----------------|
E|------------------------------------------|


(passagem 1 - 2ª parte)

     G7M
E|-----2-0-----------2-0--------------------|
B|-----3----3--------3---3------------------|
G|-----4------4------4-----4----------------|
D|--------------4------------4--------------|
A|------------------------------------------|
E|---3------3------3-----3------------------|


(passagem 2 - 2ª parte)

     Bm/E
E|------------------------------------------|
B|-----7-----7-----7-----7-----7------------|
G|-----7-----7-----7-----7-----7------------|
D|-----9-----9-----9-----9-----9------------|
A|------------------------------------------|
E|--0-----0-----0-----0-----0-----0---------|


(refrão)

  D6(9) A7/C# G7M
E|-5-5---5-5-----2-0-------------------------|
B|-5-5---5-5---3-3---3-----3-----------------|
G|-4-4---0-0---4-4-----4---4-----------------|
D|-------------4---------4-4-----------------|
A|-5---5-4---4-------------------------------|
E|-------------3-3-----3-----3---------------|


   Em    Em/D        C
E|---0---0-----------0-0-----0---3-0---------|
B|-0-0---0-----------1--1------1-----1-------|
G|-0-----0-----0-----0---0-------------0-----|
D|-2---2-0---0-----0-2----2--------------2---|
A|---------2-----2---3-----3-----3-----3-----|
E|-0-----------------------------------------|


   D6(9) A7/C# Bm7           G     G/A
E|-5-5---5-5---------------------------------|
B|-5-5---5-5---3-3-----------0-0---3-3-------|
G|-4-4---0-0---4-4---4-2-----0-0---4-4-------|
D|-------------4-4---4---4-2-0-0---5-5-------|
A|-5---5-4---4-2---2---------------0---0-----|
E|---------------------------3---3-----------|


   D6(9) G/A
E|-5-5---------------------------------------|
B|-5-5--------3---3--------------------------|
G|-4-4--------4---4--------------------------|
D|------------5---5--------------------------|
A|-5---5--0-0-------0------------------------|
E|-------------------------------------------|

Comentarios 59

  • Lucas.Eduardo.12011999 Lucas.Eduardo.12011999: Publicado en 26/06/2014 16:09

    Só a tablatura do site que não esta de acordo em algumas partes com a video-aula,mas a video-aula está perfeita,consegui pegar!

  • Kennedy Kennedy: Publicado en 27/05/2014 20:24

    Não tocava dessa forma, arranjo muito bonito.

  • Denilson Denilson: Publicado en 25/02/2014 17:25

    muito simples. e além de td lindaaa demais...

  • corega corega: Publicado en 08/01/2014 15:31

    aurrive d+ aprender essa música

  • Jéssica Jéssica: Publicado en 24/09/2013 17:43

    melhor vídeo aula que eu já vi na vida :3

  • j3f1nh0club j3f1nh0club: Publicado en 09/05/2013 21:33

    Uma das melhores video aulas que eu já vi nesse site! Música linda e incrível de tocar! É bem complicadinha, mas tô conseguindo certinho! Va

  • flyingvinicius flyingvinicius: Publicado en 03/03/2013 18:05

    Muito boa a vídeo aula, valeu cifra club! Estou com dificuldades no refrão mas é só treinar!

  • tom123... tom123...: Publicado en 14/01/2013 19:30

    alguem sabe como e a batida ou o dedilhado da musica?
    se souber comenta ai por favor

  • thiago2505 thiago2505: Publicado en 26/12/2012 00:18

    Muito boa a musica , pra quem ta tentando não desistam, não é deficil apenas requer treino , eu só toco a 2 meses e meio e consegui !

    • klebinh0o klebinh0o: Publicado en 11/01/2013 01:58

      Éh isso ae, n se assustem com o tamanho das notas, pois éh mais fácil q parece...

Exhibiendo 10 de 59 comentarios Mostrar más ver todo »
Composición: Garry Shider / Peninha
Ese no és el compositor? Avisenos.
Contribución: su Correcciónes: Gustavo Munhoz , Anna Gabriella e mais 6 »
Exhibir acordes »
publicidad
cerrar