Recaída

Bruno e Marrone

 Bruno e Marrone
Tono: A#
		

               Cm             Bb               G7               Cm
E|--3-----------------------------------------------------------------------
B|-----6--4--3--4---------6~8--6---------6~8--6------4--3--4--6--4----------
G|--------------5------3--------------3--------------5--4--5--7--5----------
D|--------------------------------------------------------------------------
A|--------------------------------------------------------------------------
E|--------------------------------------------------------------------------


               Eb             Bb               G7               Cm
E|--3-----------------------------------------------------------------------
B|-----6--4--3--4---------6~8--6---------6~8--6------4--3--4--6--4----------
G|--------------3------3--------------3--------------5--4--5--7--5----------
D|--------------------------------------------------------------------------
A|--------------------------------------------------------------------------
E|--------------------------------------------------------------------------


             G7
E|------------------------------------
B|---6---4---3------------------------
G|---7---5---4------------------------
D|------------------------------------
A|------------------------------------
E|------------------------------------


                         Cm
Se eu me cansar de ficar só
Na solidão eu te ligar
              G7
Por favor me atenda
                Fm
Procurando uma saída
                 G7
As vezes tenho recaídas
               Cm        G7
Por favor me entenda

                         Cm
Não sou perfeito e você sabe
                   C7
As vezes morro de saudade
             Fm
Isso é coisa de quem ama
        Bb            Cm
Eu posso até dizer que não
                   G7
Mas se ouvir meu coração
                   C         Dm  G7
É seu nome que ele chama

        C          Am
Noite inteira te buscando
      Dm          G7
Toda noite te esperando
       C           Am
Vida minha, minha vida
     Dm           G7
Anjo meu, oh meu anjo
        C          Am
Noite inteira te buscando
      Dm          G7
Toda noite te esperando
       C           Am
Vida minha, minha vida
     Dm           G7
Anjo meu, oh meu anjo
                Cm
          Onde andas... 

E|--3-----------------------------------------------------------------------
B|-----6--4--3--4---------6~8--6---------6~8--6------4--3--4--6--4----------
G|--------------5------3--------------3--------------5--4--5--7--5----------
D|--------------------------------------------------------------------------
A|--------------------------------------------------------------------------
E|--------------------------------------------------------------------------


               Eb             Bb               G7               Cm
E|--3-----------------------------------------------------------------------
B|-----6--4--3--4---------6~8--6---------6~8--6------4--3--4--6--4----------
G|--------------3------3--------------3--------------5--4--5--7--5----------
D|--------------------------------------------------------------------------
A|--------------------------------------------------------------------------
E|--------------------------------------------------------------------------


             G7
E|------------------------------------
B|---6---4---3------------------------
G|---7---5---4------------------------
D|------------------------------------
A|------------------------------------
E|------------------------------------


                         Cm
Não sou perfeito e você sabe
                   C7
As vezes morro de saudade
             Fm
Isso é coisa de quem ama
        Bb            Cm
Eu posso até dizer que não
                   G7
Mas se ouvir meu coração
                   C         Dm  G7
É seu nome que ele chama

        C          Am
Noite inteira te buscando
      Dm          G7
Toda noite te esperando
       C           Am
Vida minha, minha vida
     Dm           G7
Anjo meu, oh meu anjo
        C          Am
Noite inteira te buscando
      Dm          G7
Toda noite te esperando
       C           Am
Vida minha, minha vida
     Dm           G7
Anjo meu, oh meu anjo

       F  Fm  C
Onde andas...

Comentarios 0

Exhibir acordes »
publicidad
cerrar