Bijuteria

Bruno e Marrone

 Bruno e Marrone
Tono: C
		
Intro: Am  A9

          Am A9
Quando a noite cai
                             Dm
É que eu sinto a falta que você me faz
                                 G
Saudade que não passa e nem me deixa em paz
E                              Am A9
A sombra de um amor que já brilhou demais.
             Am
Você foi pra mim
                            Dm
A coisa mais bonita que me aconteceu
                             G
Nem pode imaginar os sonhos que me deu
E                                  Am   A7
E quanta insegurança que deixou o adeus.

Dm
Amei você
G                                     C
Sem truques, sem maldades, fiz o meu papel
Am                            Dm
Eu quis lhe oferecer o que ninguém me deu
E                             Am     A7
Você não acredita, mas eu fui fiel

Dm
Amei você
G                                  C
Mas hoje posso ver que foi melhor assim
Am                               Dm
Preciso te esquecer pra me lembrar de mim
E            Am    A7
A vida continua

     Dm                   G
E no brilho de uma pedra falsa
      C                 Am
Dei amor a quem não merecia
      Dm                   E                  Am     A7
Eu pensei que era uma jóia rara, era bijuteria

       Dm                 G
Das mentiras as palavras doces
    C                      Am
Se calou no teu olhar tão frio
      Dm                   E                   Am
Na beleza do teu rosto esconde um coração vazio.


                Dm      G                    C           Am
E|-3/5-3---3/5-5------------------3-1-0-1/3-3--3/7-10-10--8-7-8-5-|
B|-------6---------4-4--3-3-2-3-----------------------------------|
G|-----------------5-5--4-4-3-4-----------------------------------|
D|----------------------------------------------------------------|
A|----------------------------------------------------------------|
E|----------------------------------------------------------------|



                Dm                            E
E|-3/5-3---3/5-5---7-7-7-7-7-7-7-8-8-8-8-8/10-|
B|-------6------------------------------------|
G|--------------------------------------------|
D|--------------------------------------------|
A|--------------------------------------------|
E|--------------------------------------------|



                                   Am             A         Dm      Em
E|---------------------8---8-10/12-10-10-8-8----------------------------|
B|--------------8----9---9---------------------5-3-2--------------------|
G|-----9-7-10-9---10---------------------------5------2-4-5-4-2---------|
D|-9-7-----------------------------------------5----------------5-3-2-0-|
A|----------------------------------------------------------------------|
E|----------------------------------------------------------------------|


Dm
Amei você
G                                     C
Sem truques, sem maldades, fiz o meu papel
Am                            Dm
Eu quis lhe oferecer o que ninguém me deu
E                             Am     A7
Você não acredita, mas eu fui fiel

Dm
Amei você
G                                  C
Mas hoje posso ver que foi melhor assim
Am                               Dm
Preciso te esquecer pra me lembrar de mim
E            Am    A7
A vida continua

     Dm                   G
E no brilho de uma pedra falsa
      C                 Am
Dei amor a quem não merecia
      Dm                   E                  Am     A7
Eu pensei que era uma jóia rara, era bijuteria

       Dm                 G
Das mentiras as palavras doces
    C                      Am
Se calou no teu olhar tão frio
      Dm                   E                   Am
Na beleza do teu rosto esconde um coração vazio.

Comentarios 3

  • gilmar gilmar: Publicado en 19/10/2014 22:50

    nao vir o acorde A9 na relaçao de acordes

  • matheusbahia matheusbahia: Publicado en 12/08/2013 14:37

    Linda

  • rodriguinhool rodriguinhool: Publicado en 19/07/2011 13:51

    mt boa essa musica

Composición: Chico Roque/carlos Colla
Ese no és el compositor? Avisenos.
Contribución: Potokinhaw Correcciónes: Vicente , ALEX NUNES e mais 4 »
Exhibir acordes »
publicidad
cerrar