More Than A Feeling

Boston

 Boston
Tono: G
		
(riff 1 - toda a música)
(riff 2 - refrão)

(riff 1)

E|----------3--2---------------------------------
B|----3-----------3-----------3--------3---------
G|-------2------------0-----0--------0-------0---
D|--0--------------------------------------------
A|-----------------------3--------2--------------
E|---------------------------------------3-------


(solo antes do riff 2)

(guitarra 1)

E|---7s8-7--8p75--7h8p7h5h7p3~~~~------
B|-------------------------------------
G|-------------------------------------
D|-------------------------------------
A|-------------------------------------
E|-------------------------------------


(guitarra 2) (quando chegar na casa um segure
 a nota e de um slide com a palheta)

E|------------------------------
B|------------------------------
G|------------------------------
D|------------------------------
A|------------------------------
E|-----------------12s>>>>>1~---



  (riff 2) G5          C5            E5          D5
E|------------------------------------------------
B|------------------------------------------------
G|-------------5--5--5--5-----9--9--9---7--7--7--7
D|5---5---5----5--5--5--5-----9--9--9---7--7--7--7
A|5---5---5----3--3--3--3-----7--7--7---5--5--5--5
E|3---3---3---------------------------------------


(riff 1)
I looked out this morning and the sun was gone
Turned on some music to start my day
I lost myself in a familiar song
I closed my eyes and I slipped away

(riff 2)
It´s more than a feeling, when I hear that
old song they used to play (more than a feeling)
I begin dreaming (more than a feeling)
´till I see Marianne walk away
I see my Marianne walkin´ away

(riff 1)
So many people have come and gone
Their faces fade as the years go by
Yet I still recall as I wander on
as clear as the sun in the summer sky

(riff 2)
It´s more than a feeling, when I hear that
old song they used to play (more than a feeling)
I begin dreaming (more than a feeling)
´till I see Marianne walk away
I see my Marianne walkin´ away

(riff 1)
When I´m tired and thinking cold
I hide in my music, forget the day
and dream of a girl I used to know
I closed my eyes and she slipped away
She slipped awa y. She slipped away.

(riff 2)
It´s more than a feeling, when I hear that
old song they used to play (more than a feeling)
I begin dreaming (more than a feeling)
´till I see Marianne walk away
I see my Marianne walkin´ away

Solo:

E|---------------------------------------------------------------------------|
B|------------7---7-8--7h8p7-------8b10b8------------------------------------|
G|---6--7--9------------------9-7--------------------------------------------|
D|---------------------------------------------------------------------------|
A|---------------------------------------------------------------------------|
E|---------------------------------------------------------------------------|



E|---------------------------------------------------------------------------|
B|------8--7--5h7p5-----5h7--------------------------------------------------|
G|---7---------------7-------------------------------------------------------|
D|---------------------------------------------------------------------------|
A|---------------------------------------------------------------------------|
E|---------------------------------------------------------------------------|



E|---------------------------------------------------------------------------|
B|------8--7h8p7-------------------------------------------------------------|
G|---7------------9--7--9b10b9--7--6-----------------------------------------|
D|---------------------------------------------------------------------------|
A|---------------------------------------------------------------------------|
E|---------------------------------------------------------------------------|



E|---------------------------------------------------------------------------|
B|------8--7--7-8--7h8p7--------10b12----------------------------------------|
G|------------------------9--7-----------------------------------------------|
D|---7-----------------------------------------------------------------------|
A|---------------------------------------------------------------------------|
E|---------------------------------------------------------------------------|



E|---------------------------------------------------------------------------|
B|---10--8--7h8p7-----7------------------------------------------------------|
G|-----------------9---------------------------------------------------------|
D|---------------------------------------------------------------------------|
A|---------------------------------------------------------------------------|
E|---------------------------------------------------------------------------|



E|---------------------------------------------------------------------------|
B|------8--7--5h7p5-----5----------------------------------------------------|
G|---7---------------7-------------------------------------------------------|
D|---------------------------------------------------------------------------|
A|---------------------------------------------------------------------------|
E|---------------------------------------------------------------------------|



E|---------------------------------------------------------------------------|
B|---------------------------------------------------------------------------|
G|---7/11--9h11p9------------------------------------------------------------|
D|-----------------12--11--12------------------------------------------------|
A|---------------------------------------------------------------------------|
E|---------------------------------------------------------------------------|



E|---------------------------------------------------------------------------|
B|---14h15p14------17b19-----------------------------------------------------|
G|-------------16------------------------------------------------------------|
D|---------------------------------------------------------------------------|
A|---------------------------------------------------------------------------|
E|---------------------------------------------------------------------------|
Texto Columnas
Alterar tom ½ tono ½ tono
sintonización acordes esconder tabs más »

Comentarios 29

  • ruandiablo ruandiablo: Publicado en 20/07/2014 14:04

    izi

  • Nathan Nathan: Publicado en 11/06/2014 23:27

    Alguém pode me dizer pra que serve o h,p,s e b entre os números ?

    • pedroh140 pedroh140: Publicado en 29/07/2014 - 20:22

      cara, assiste a video aula de sweet child o mine que o fofao ensina.

  • lucas.orlandobernardes lucas.orlandobernardes: Publicado en 02/06/2014 17:16

    facil facil

  • lucas.orlandobernardes lucas.orlandobernardes: Publicado en 02/06/2014 17:10

    Facil

  • lucksleg.silvanet lucksleg.silvanet: Publicado en 01/02/2014 15:14

    bem facinha

  • Maicon Maicon: Publicado en 06/01/2014 11:26

    bom essa musica tem no Tv Cifras e com video aula só q é pra violão e fico muito boa sai semelhante a musica mesmo.

  • joaovitor.miranda.7 joaovitor.miranda.7: Publicado en 13/09/2013 19:22

    boa pra iniciantes

  • Jéssica Jéssica: Publicado en 12/07/2013 11:10

    Os acordes do refrão parte 1
    são: G5,C5,E5,Eb5

  • bruninho bruninho: Publicado en 23/11/2012 16:45

    ta faltando acordes

Exhibiendo 10 de 29 comentarios Mostrar más ver todo »
Composición: Johnny Bristol / Julio Jimenez "Chaboli" / Tom Scholz
Ese no és el compositor? Avisenos.
Contribución: eduguitar Correcciónes: kadson , cenoga e mais 2 »
  1. Sweet Child O' Mine - Guns N' Roses mantiene 2.715 exhibiciones
  2. Wonderwall - Oasis mantiene 2.019 exhibiciones
  3. All Of Me - John Legend mantiene 1.682 exhibiciones
  4. Nothing Else Matters - Metallica mantiene 1.559 exhibiciones
  5. When I Was Your Man - Bruno Mars mantiene 1.550 exhibiciones
  6. Stairway To Heaven - Led Zeppelin mantiene 1.464 exhibiciones
  7. More Than Words - Extreme mantiene 1.394 exhibiciones
  8. Hey Jude - The Beatles mantiene 1.365 exhibiciones
  9. The Scientist - Coldplay mantiene 1.324 exhibiciones
  10. Wake Me Up - Avicii mantiene 1.092 exhibiciones
  1. The Beatles- mantiene 21.481 exhibiciones
  2. Guns N' Roses- mantiene 7.146 exhibiciones
  3. Metallica- mantiene 6.782 exhibiciones
  4. Red Hot Chili Peppers- mantiene 5.259 exhibiciones
  5. Nirvana- mantiene 5.178 exhibiciones
  6. Coldplay- mantiene 5.134 exhibiciones
  7. One Direction- mantiene 4.563 exhibiciones
  8. Bruno Mars- mantiene 4.524 exhibiciones
  9. Oasis- mantiene 4.438 exhibiciones
  10. Green Day- mantiene 3.504 exhibiciones
Exhibir acordes »

Acordes y tabs

Aprenda

Studio Sol

©1996 - 2014 Cifra Club · el primero, mayor y más accedido del Brasil · 336 mil músicas · 6.2 millones de personas registradas

publicidad
cerrar