Fuck a Dog

Blink 182

 Blink 182
Tono: C
		
Intro 

e|-----------------------|-----------------| 
B|---0-------------------|---0-------------| 
G|-----0---0-------------|-------0---------|
D|-0-----0-----5-------7-|-0---0-----5---7-| 
A|-----------3---3-3\5---|---------3---5---| 
E|-----------------------|-----------------| 


Fuck A Dog
I wanna fuck a dog in the ass (he wants to fuck a dog in the ass) 
I wanna fuck a dog,that`s right kids 
I tried to fuck your mom in the ass,
tried to fuck your dad in the ass, 
could only find the dog,and his ass  

We wanna fuck a dog in the ass 
We wanna fuck a dog in the ass 
We wanna fuck a dog  

I tried to fuck a fucking pirate in the ass 
(argh,me and me first mate you skurvey ker ) 
Tried to fuck a fucking pirate,but I found a dog 
(Ah,that was no pirate man that was thy own sister)  
(it`s a mexican pirate)  

We wanna fuck a dog in the ass 
We wanna fuck a dog in the ass 
We wanna fuck a dog

Outro 

e|-------------------| 
B|---0---------------| 
G|-0-------0---------| Fuck You! 
D|-----0-0-----5-----| 
A|-----------3---3\5-| 
E|-------------------|

Comentarios 1

  • dkster dkster: Publicado en 15/11/2011 11:54

    Muito fera essa musica...Facinhaaaaa

Exhibir acordes »
publicidad
cerrar