Machuca

Black Style

 Black Style
Tono: 
		
1ª Parte

E|-----5-7-5-4--5-7-5-4--5-7-5-4-----------
B|-----------------------------------------
G|-----------------------------------------
D|-----------------------------------------
A|-----------------------------------------
E|-----------------------------------------


2ª Parte

E|-----5-------------5-7-------------5-7---
B|-------5-6-7-5-6-7-----5-6-7-5-6-7-------
G|-----------------------------------------
D|-----------------------------------------
A|-----------------------------------------
E|-----------------------------------------


3ª Parte

E|-----------------------------------------
B|-9-11-9----9-11-9----9-11-9----9-11-9----
G|--------11--------11--------12--------12-
D|-----------------------------------------
A|-----------------------------------------
E|-----------------------------------------
22 exhibiciónes

Comentarios 0

Composición: Sabe quien és el compositor? Envíenos. Contribución: Lucas
Consigo tocarSin embargo, para tocar esta canción. ¡Sé el primero!
    Aún no puedo reproducir
    Exhibir acordes »
    publicidad
    cerrar